Hacelo Por Mí

Per aggiungere un elenco personale è necessario effettuare il
o

Attaque 77

Versione
studio
pubblicato da
iri
Tono
A-
A+
Scorrere
A -> La
Video
Accordi
Traduzione
	 
[Intro]
E C#m
e|------------------------------| ---------------------------------|

b|------------------------------| ---------------------------------|

g|--1--1---1--1--1----1--1--9-8-| ---------------------------------|

D|--2--2---2--2--2----2--2--9-8-| -6-6-------------6-6-------------| x2

A|--2--2---2--2--2----2--2--7-6-| -----7-7-6-6-4-4-----7-7-6-6-4-4-|

E|--0--0---0--0--0----0--0------| ---------------------------------|

A B A B

e|-----------------|----------------|

b|-----------------|----------------|

g|-----------------|-8/9--6--13--11-|

D|-6/7--7--6--4----|----------------|

A|---------------2-|----------------|

E|-----------------|----------------|

[Versetto]
E
Yo no sé lo que sentí
C#m
esa tarde que te ví
A
Yo pensaba en otras cosas,
B
fuiste mucho para mi.
[Versetto]
E
Yo creia en tus palabras,
C#m
tu mirada me engaño
A
ahora sé que no sos mía
B
la culpa la tuve yo.
[Coro]
A
Yo no quise lastimarte,
G#m
jamás tuve esa intención
A
fuimos presos de un impulso,
F#m B
yo solo buscaba amor.
[Intro]
E C#m
e|------------------------------| ---------------------------------|

b|------------------------------| ---------------------------------|

g|--1--1---1--1--1----1--1--9-8-| ---------------------------------|

D|--2--2---2--2--2----2--2--9-8-| -6-6-------------6-6-------------| x2

A|--2--2---2--2--2----2--2--7-6-|-----7-7-6-6-4-4-----7-7-6-6-4-4-|

E|--0--0---0--0--0----0--0------| ---------------------------------|

A B A B
e|-----------------|----------------|

b|-----------------|----------------|

g|-----------------|-8/9--6--13--11-|

D|-6/7--7--6--4----|----------------|

A|---------------2-|----------------|

E|-----------------|----------------|

[Versetto]
E
Cuando te veía en la calle,
C#m
no podía evitar
A
que el silencio se adueñara,
B
me quedaba sin hablar.
[Versetto]
E
Y ahora sé que no sos mía
C#m
la culpa la tuve yo,
A
si querés podes marcharte,
B
solo te pido un favor...
[Coro]
A
Si aun te queda algo de amor
G#m
dentro de tu corazón
A
no me mires a los ojos
F#m D B
que me muero, yo me muero de dolor
E
Hacelo Por Mi.
[Intro]
e|------------------------------| ---------------------------------|

b|------------------------------| ---------------------------------|

g|--1--1---1--1--1----1--1--9-8-| ---------------------------------|

D|--2--2---2--2--2----2--2--9-8-| -6-6-------------6-6-------------| x2

A|--2--2---2--2--2----2--2--7-6-| -----7-7-6-6-4-4-----7-7-6-6-4-4-|

E|--0--0---0--0--0----0--0------| ---------------------------------|

e|-----------------|----------------|

b|-----------------|----------------|

g|-----------------|-8/9--6--13--11-|

D|-6/7--7--6--4----|----------------|

A|---------------2-|----------------|

E|-----------------|----------------|

[Versetto]
E
Todo eso que sentia
C#m
esa tarde que te vi,
A
ahora ya no tiene sentido,
B
fue un mal sueño para mi.
[Versetto]
E
Y al pensar en tu mirada,
C#m
ya no puedo sonreir
A
si querés podes marcharte,
B
solo te quiero decir...
[Coro]
A
Si aun te queda algo de amor
G#m
dentro de tu corazón
A
no me mires a los ojos
F#m D B
que me muero, yo me muero de dolor...
E [E D#]
Hacelo por mi
[Versetto]
C#m E C#m
hacelo por mí, oh no no oh no no no
E C#m
hacelo por miií, oh, no no, oh no mo
E C#m
hacelo por mí, oh no no oh no no no
E C#m
hacelo por mi
E C#m
hacelo por mí
A B
Oh no no,no oh no no noooo
A B
yeah yeah yeah yeah! Yeah!!!
E
Hacelo por mi
Questo sito utilizza i cookie