Porque te vas...

Per aggiungere un elenco personale è necessario effettuare il
o

Attaque 77

Versione
studio
pubblicato da
iri
Tono
A-
A+
Scorrere
A -> La
Video
Accordi
Traduzione
	 
[Intro]
e|-10/11-11-11---11-11-11-|

b|-10/11-11-11---11-11-11-|

g|------------------------|

D|------------------------|x4

A|------------------------|

E|------------------------|

e|------------------------|

b|------------------------|

g|------------------------|

D|-4/5-5-5--5-5-5---------|x4

A|-4/5-5-5--5-5-5---------|

E|------------------------|

[Intro]
[Versetto]
D5 G5 D5 D D D
Hoy en mi ventana brilla el sol mi corazón
G5 D5 A5 D5 [C# D DDD] [C# D DDD]
se pone triste contemplando la ciudad porque te vas
D5 G5 D5
Como cada noche desperté pensando en vos
G5 D5 A7 D5
y en mi reloj las horas no terminan más, porque te vas
[Coro]
A# D5
Todas las promesas de mi amor se irán contigo
F5 D5
no olvidarás, no olvidarás
A# D5
Y en una estación te lloraré igual que a un niño
F A7 [C# D DDD] [C# D DDD]
porque te vas, porque te vas
[Versetto]
D5 G5 D5
Yo en tu vida solamente fui un juego más
G5 D5 A7 D5 [C# D DDD] [C# D DDD]
Y todo aquello que juraste por mi amor, lo olvidarás
D5 G5 D5
Como cada noche despertee eh eh pensando en vos
G5 D5 A7 D5
Y en mi reloj las horas no terminan más, porque te vas.
[Coro]
A# D5
Todas las promesas de mi amor se irán contigo
F5 D5
no olvidarás, no olvidarás
A# D5
Y en una estación te lloraré igual que a un niño
F A7 [C# D DDD] [C# D DDD]
porque te vas, porque te vas
[Solo]
A# D A A#
e|------------------| |-----------|-------------------|

b|------------------| |-----------|-------------------|

g|------------------| |-----------|-2-2-------------3-|

D|-2h3-2----3h5p3-2-|x4 |-3h5p3---2-|-----5-5-3-3-2-2-3-|

A|-------5----------| |-------5---|-----------------1-|

E|------------------| |-----------|-------------------|

[Coro]
A#5 D5
Todas las promesas de mi amor se irán contigo
F5 D5
no olvidarás, no olvidarás
A#5 D5
Y en una estación te lloraré igual que a un niño
F A7 D
porque te vas, porque te vas ah ah ah
A#5 D5
Todas las promesas de mi amor se irán contigo
F5 D5
no olvidarás, no olvidarás
A#5 D5
Y en una estación te lloraré igual que a un niño
F A7 D
porque te vas, porque te vas
A5 D A5 D5
porque te vas, porque te vas
A5 D A5 D C A# F D
porque te vas, porque te va a a a as
Questo sito utilizza i cookie