Espadas y Serpientes

Per aggiungere un elenco personale è necessario effettuare il
o

Attaque 77

Versione
studio
pubblicato da
iri
Tono
A-
A+
Scorrere
A -> La
Video
Accordi
Traduzione
	 
[Intro]
e|---------------------------------------------------|

B|----------------------8-7--------------------------|

G|-5-5-5-5-4---------7v-----7v-7s9--9be-7-5v---------|

D|-----------7v--5----------------------------7v4v5v-|

A|---------------------------------------------------|

E|---------------------------------------------------|

e|----------------------------------------------|

b|-----------8-7-----------------------------15-|

g|--------7v-----7v---7s9--9be-7-5v--------7----|

D|-5v--5v---------------------------7v4v5v------|

A|----------------------------------------------|

E|----------------------------------------------|

[Versetto]
A E D
Yo recuerdo aquellas noches (whooo oh oh ooh)
A E D
y también te recuerdo a vos
A E D
ese fue mi último golpe (whooo oh oh oooh)
A E D
y también fue mi último amor.
[Ponte]
D E C#m F#m
Yo te había jurado que ya no robaría
D E F#m D E
yo no quería terminar así
D E C#m F#m
no llores nena, no llores más
D E
se que muy pronto me van a soltar (y volveré a verte)
[Coro]
A E D
Yo volveré, a las calles (woooh oh oh!)
A E D
sé que mi barrio esperará (woooh oh oh!)
A E D
Yo volveré, a las calles (woooh oh oh!)
A E D
hay un lugar para estar con vos una vez más.
[Intro]
e|---------------------------------------------------|

B|----------------------8-7--------------------------|

G|-5-5-5-5-4---------7v-----7v-7s9--9be-7-5v---------|

D|-----------7v--5----------------------------7v4v5v-|

A|---------------------------------------------------|

E|---------------------------------------------------|

e|----------------------------------------------|

b|-----------8-7-----------------------------15-|

g|--------7v-----7v---7s9--9be-7-5v--------7----|

D|-5v--5v---------------------------7v4v5v------|

A|----------------------------------------------|

E|----------------------------------------------|

[Versetto]
A E D
Aquí¡ en mi celda estoy muy solo
A E D
solo hay lugar para soñar
A E D
sueños de espadas y serpientes
A E D
sueños de muerte y libertad.
[Ponte]
D E C#m F#m
Nunca olvidé esa noche, en ese hotel de Flores
D E F#m D E
fue aquella la última vez que te vi
D E C#m F#m
no llores nena, no llores más
D E
sé que muy pronto me van a soltar, (Y volveré, a verte)
[Coro]
A E D
Yo volveré, a las calles (woooh oh oh!)
A E D
sé que mi barrio esperará (woooh oh oh!)
A E D
Yo volveré, a las calles (woooh oh oh!)
A E D
hay un lugar para estar con vos una vez más.
[Solo]
e|---------------------------------------------------------12---12-----|

B|------------------2-0-2-3-2-0---3-2-0--------------------12---12-----|

G|--4b-4b-4b-4b-4b--------------2-------2---2-1--1-2-1-------14b--14b--|

D|----------------------------------------------2------2---------------|

A|---------------------------------------------------------------------|

E|---------------------------------------------------------------------|

[Coro]
A E D
Yo volveré, a las calles (woooh oh oh!)
A E D
sé que mi barrio esperará (woooh oh oh!)
A E D
Yo volveré, a las calles (woooh oh oh!)
A E D
hay un lugar para estar con vos una vez más.
[Ponte]
A E D
(woooh oh oh!)
A E D
con vos una vez más.
A E D
(woooh oh oh!)
A E D
[Outro]
A E D
Yo volveré, a las calles (woooh oh oh!)
A E D
Yo volveré, a las calles (woooh oh oh!)
A E D
Yo volveré, a las calles (woooh oh oh!)
A E D
Yo volveré, a las calles (woooh oh oh!)
Questo sito utilizza i cookie