Vuelve a Casa

Per aggiungere un elenco personale è necessario effettuare il
o

Attaque 77

Versione
studio
pubblicato da
iri
Tono
A-
A+
Scorrere
A -> La
Video
Accordi
Traduzione
	 
[Intro]
e|-------------------------------5-5-5-4-5-4-4-4-5-4---2-2-2-4-2--4---|

b|----5-----5------3------5------5-5-5-5-5-5-5-5-5-5---3-3-3-5-3--5---|

g|--------------------------------------------------------------------|

D|--7--7--6---6--4---4--6---6-----------------------------------------|

A|--------------------------------------------------------------------|

E|--------------------------------------------------------------------|

G#/A G#/A G#/A G#A
E|------------------------------------|

B|------------------------------------|

G|------------------------------------|

D|-6/77777--6/77777--6/77777--6/77777-|x4

A|-6/77777--6/77777--6/77777--6/77777-|

E|-4/55555--4/55555--4/55555--4/55555-|

[Versetto]
A D [D-C#]
Te vestiste y te acompañé
B E
A tomar el ciento cuarenta y trés
A D [D-C#]
Me miraste, y yo te miré
B E
Me abrazaste y yo te besé.
[Ponte]
A
Y te fuiste eh eh...
D B E
Yo me fuí, caminando por ahí
C# F#m
La ciudad se duerme y yo me desespero,
B E
Si no tiene sentido cuando vos no estás.
[Coro]
A F#m
Vuelve a casa, oh no no no no no...
D E
Vuelve a casa, oh yeah...
A F#m
Vuelve a casa, oh no no no no no...
D E
Vuelve a casa, oh yeah..., Vuelve a casa...
[Intro]
e|-------------------------------5-5-5-4-5-4-4-4-5-4---2-2-2-4-2--4---|

b|----5-----5------3------5------5-5-5-5-5-5-5-5-5-5---3-3-3-5-3--5---|

g|--------------------------------------------------------------------|

D|--7--7--6---6--4---4--6---6-----------------------------------------|

A|--------------------------------------------------------------------|

E|--------------------------------------------------------------------|

E|------------------------------------|

B|------------------------------------|

G|------------------------------------|

D|-6/77777--6/77777--6/77777--6/77777-|x4

A|-6/77777--6/77777--6/77777--6/77777-|

E|-4/55555--4/55555--4/55555--4/55555-|

[Versetto]
A D [D-C#]
Yo te quiero a mi lado otra vez,
B E
Y no solo, una hora o tres
A D [D-C#]
Ya no sé como hacerte entender
B E
Que te quiero, mucho más que ayer
[Ponte]
A
Y no te quiero
D
solo para estar
B E
Una noche y nada maaaaas..
C# F#m
¿Y por qué cada vez, que yo te necesito
B E
Da la casualidad que vos nunca estás?
[Coro]
A F#m
Vuelve a casa, oh no no no no no...
D E
Vuelve a casa, oh yeah...
A E E E
Vuelve a caaa ah ah ah, oh no no no no no no!
A E E E
Vuelve a casa, oh yeah!!
A E E E
Vuelve a casa, oh no, no no, woh no no!
A E E E
Vuelve a casa, oh no, woh no, no no, no no!
A E E E
Vuelve a casa, oh no, woh no, no no, no no!
A E E E
Vuelve a casa, oh no, woh no, no no, no no!
A
Vuelve a casa
Questo sito utilizza i cookie