Nos siguen pegando abajo

Per aggiungere un elenco personale è necessario effettuare il
o

Charly García

Versione
studio
pubblicato da
iri
Tono
A-
A+
Scorrere
A -> La
Video
Accordi
Traduzione
	 
[Intro]
G D A E
e|--3-3--3-3-3--0-0-0--0-0--|

b|--3-3--2-2-2--2-2-2--0-0--|

g|--0-0--3-3-3--2-2-2--1-1--|

D|--0-0--0-0-0--2-2-2--2-2--|x8

A|--2-2---------0-0-0--2-2--|

E|--3-3----------------0-0--|

[Versetto]
G D
Ella es menor, él es normal
A
y lo que están haciendo
E
es un pecado mortal.
G D
Ella se quedó sin boda ni arroz
A
y al novio lo agarraron
E
entre muchos más que dos.
[Coro]
C9 G
Miren lo están golpeando todo el tiempo,
B7 E D
lo vuelven, vuelven a golpear
C9 G Dsus
Nos siguen pegando abajo
[Intro]
G D A E
e|--3-3--3-3-3--0-0-0--0-0--|

b|--3-3--2-2-2--2-2-2--0-0--|

g|--0-0--3-3-3--2-2-2--1-1--|

D|--0-0--0-0-0--2-2-2--2-2--|x4

A|--2-2---------0-0-0--2-2--|

E|--3-3----------------0-0--|

[Versetto]
G D
Yo estaba en un club, no había casi luz,
A E
la puerta de salida, tenía un farolito azul
G D
Él se desmayó delante de mí
A
No fueron las pastillas,
E
fueron los hombres de gris.
[Coro]
C9 G
Miren lo están golpeando todo el tiempo,
B7 E D
lo vuelven, vuelven a golpear
C9 G Dsus
Nos siguen pegando abajo
[Intro]
G D A E
e|--3-3--3-3-3--0-0-0--0-0--|

b|--3-3--2-2-2--2-2-2--0-0--|

g|--0-0--3-3-3--2-2-2--1-1--|

D|--0-0--0-0-0--2-2-2--2-2--|x4

A|--2-2---------0-0-0--2-2--|

E|--3-3----------------0-0--|

[Ponte]
G - G - G - G

G - D - A - E

[Ponte]
G - D - A - E
Na na na na na na ra na na na
G - D - A - E
Na na na na na na ra na na na
G - D - A - E
Na na na na na na ra na na na
[Versetto]
G D
Ma, ma, ma, estoy yéndome
A E
Soy como una luz apagándose
G D
Desde el piso los pude ver
A E
Locos de placer, alejándose.
[Coro]
C9 G
Miren lo están golpeando todo el tiempo,
B7 E D
lo vuelven, vuelven a golpear
C9 G Dsus
Nos siguen pegando abajo
[Intro]
G D A E
e|--3-3--3-3-3--0-0-0--0-0--|

b|--3-3--2-2-2--2-2-2--0-0--|

g|--0-0--3-3-3--2-2-2--1-1--|

D|--0-0--0-0-0--2-2-2--2-2--|

A|--2-2---------0-0-0--2-2--|

E|--3-3----------------0-0--|

Questo sito utilizza i cookie