I Heard It Through The Grapevine

Per aggiungere un elenco personale è necessario effettuare il
o

Creedence Clearwater Revival

Versione
studio
pubblicato da
iri
Tono
A-
A+
Scorrere
A -> La
Video
Accordi
Traduzione
	 
Tuning/Afinación: Drop-D - DADGBE
[Intro]
E|-------------------------------------------------|

B|-------------------------------------------------|

G|-------------------------------------------------|

D|-------------------------------------------------|x4

A|--5~-5-8-5~-5~-8-7~------------------------------|

D|--0~-0-0-0~-0~-0~0~------------------------------|

[Versetto]
Dm A7 G
Ooo, bet you're wondering how I knew, about your plans to make me blue.
Dm A7
With some other guy that you knew before? Between the two of us guys you
G Bm G Dm
know I love you more. It took me by surprise I must say, when I found out
G
yesterday.
[Coro]
Dm
Ooo, I heard it through the grapevine
G
not much longer would you be mine
Dm
Ooo I heard it through the grapevine,
G Dm
and I'm just about to lose my mind, honey, honey yeah.
[Intro]
E|-------------------------------------------------|

B|-------------------------------------------------|

G|-------------------------------------------------|

D|-------------------------------------------------|x4

A|--5~-5-8-5~-5~-8-7~------------------------------|

D|--0~-0-0-0~-0~-0~0~------------------------------|

[Versetto]
Dm A7
You know that a man ain't supposed to cry, but these tears I can't hold
G Dm A7 G
inside. Losing you would end my life you see, 'cause you mean that much to me.
Bm G Dm G
You could have told me yourself, that you found someone else.
[Coro]
G
not much longer would you be mine
Dm
Ooo I heard it through the grapevine,
G Dm
and I'm just about to lose my mind, honey, honey yeah.
[Intro]
E|-------------------------------------------------|

B|-------------------------------------------------|

G|-------------------------------------------------|

D|-------------------------------------------------|x4

A|--5~-5-8-5~-5~-8-7~------------------------------|

D|--0~-0-0-0~-0~-0~0~------------------------------|

[Coro]
Dm
People say believe half of what you see,
A7 G
nah nah nah from what you hear.
Dm
I can't help being confused,
A7 G
if it's true won't you tell me, hear?
Bm G
Do you plan to let me go,
Dm G
for the other guy that you knew before?
[Coro]
Dm
Ooo, I heard it through the grapevine
G
not much longer would you be mine
Dm
Ooo I heard it through the grapevine,
G Dm
and I'm just about to lose my mind, honey, honey yeah.
[Intro]
E|-------------------------------------------------|

B|-------------------------------------------------|

G|-------------------------------------------------|

D|-------------------------------------------------|x4

A|--5~-5-8-5~-5~-8-7~------------------------------|

D|--0~-0-0-0~-0~-0~0~------------------------------|

[Solo]
Dm A7 G Dm A7 G Bm G Dm G
[Solo]
e|------------------------------------------------------------------------------------------|

b|-----------------------------------------------------------------------------------6------|

g|----12b14-12b14-12b14----10----10----------------------------------5-7-7b9(r9)p7-----7----|

D|-12-------------------------12----12p10-12p10------------------5/7---------------5--------|

A|----------------------------------------------12p10h12p10/8-------------------------------|

E|------------------------------------------------------------------------------------------|

e|----------9b10---------------------------------------------------------------------------------------------|

b|---------------------------------------------------------------------------------6------------12~----------|

g|-7---7--------------10----10--------------------------------5-7------7b9(r9)p7-----7------7-7--------------|

D|-----------------------12----12p10-12p10----------------5/7--------------------5-----------------14b16r-12-|

A|-----------------------------------------12p10h12p10/------------------------------------------------------|

E|-----------------------------------------------------------------------------------------------------------|

e|-----------------------------------------------------------------|

b|----------------------10-10--------------------------------------|

g|-/12----12----12------10-10----12b14-10----12-10-------10-12-10--|

D|-----10----11---------------12----------12----------12-----------|

A|-----------------------------------------------------------------|

E|-----------------------------------------------------------------|

e|------------------------------------------------------------------------------------------|

b|----10-10-10----10-------12b13--12b13----12b13r12-10----12-10--10-10----10-10-10----10----|

g|----10-10-10----10---7---12b13--12b13----12b13r12-10----12-10--10-10----10-10-10----10--7-|

D|-12----------12------7----------------12-------------12--------------12----------12-----7-|

A|------------------------------------------------------------------------------------------|

E|------------------------------------------------------------------------------------------|

e|------------------------------------------|

b|----12b13r12b13r12--12b13r12-10----12-10\-|

g|----12b13r12b13r12--12b13r12-10----12-10\-|

D|-12-----------------------------12--------|

A|------------------------------------------|

E|------------------------------------------|

[Intro]
E|-------------------------------------------------|

B|-------------------------------------------------|

G|-------------------------------------------------|

D|-------------------------------------------------|x4

A|--5~-5-8-5~-5~-8-7~------------------------------|

D|--0~-0-0-0~-0~-0~0~------------------------------|

Questo sito utilizza i cookie