Crazy little thing called love

Per aggiungere un elenco personale è necessario effettuare il
o

Queen

Versione
studio
pubblicato da
iri
Tono
A-
A+
Scorrere
A -> La
Video
Accordi
Traduzione
	 
[Intro]
D D4 D D4

D D4 D D4 D

[Versetto]
D D4 D D4 D
This thing, called love
G C G
I just can't handle it
D D4 D D4 D
This thing, called love
G C G
I must, get round to it
D
I ain't ready
Bb5 C5 D
Crazy little thing called love
[Versetto]
D D4 D D4 D
This thing, called love
G C G
It cries, in craddle at night
D D4 D D4 D
It swings, it jives
G C G
It shakes, all overlike a jelly-fish
D
I kinda like it
Bb5 C5 D
Crazy little thing called love
[Coro]
G C G
There goes my baby, she knows how to rock and roll
Bb5 E
She drives me crazy, she gives me hot and cold fever
A E
She leaves me in a cool, cool sweat
[Tab]
E
e|--------------0-0-0-0-0-0-----------------|

b|--------------0-0-0-0-0-0-----------------|

g|--------------1-1-1-1-1-1-----------------|

D|--------------2-2-2-2-2-2-----------------|

A|-5-4-3--------2-2-2-2-2-2-----------------|

E|-------5-4-3--0-0-0-0-0-0--5-5-3-2-0------|

[Versetto]
D D4 D D4 D
I gotta be cool, relax
G C G
Get hip, get on my tracks
D D4 D D4 D
Take a back seat, hitch-hike
G C G
And take a long ride on my motor bike
D
Until I'm ready
Bb5 C5 D
Crazy little thing called love
[Solo]
e|-9/10-10-10-10-10-10----------------------|

b|-9/10----10-10-10-10----------------------|

g|------------------------------------------|

D|------------------------------------------|

A|------------------------------------------|

E|------------------------------------------|

e|---------------------------------13-------|

b|-13b15-b15-b15r13p11-13-11-13b15----------|

g|------------------------------------------|

D|------------------------------------------|

A|------------------------------------------|

E|------------------------------------------|

e|-9/10-10-10-------------------------10-10--|

b|-9/10----10--12--10----------| 10h12-10-10-|

g|-------------12-----11--10h11--------------|

D|-------------------------------------------|

A|-------------------------------------------|

E|-------------------------------------------|

e|-------13-------13----------------------13|

b|-13b15----13b15----15r13p11-13-11-13b15---|

g|------------------------------------------|

D|------------------------------------------|

A|------------------------------------------|

E|------------------------------------------|

e|-11/12-12----12---------------------------|

b|-11/12----15----14------------------------|

g|-------------------14--------14-14--------|

D|----------------------16-14---------------|

A|------------------------------------------|

E|------------------------------------------|

e|------------------------------------------|

b|------------------------------------------|

g|------------------------------------------|

D|-16b18-14h16p14---------------------------|

A|------------------------------------------|

E|------------------------------------------|

E

e|--------------0-0-0-0-0-0-----------------|

b|--------------0-0-0-0-0-0-----------------|

g|--------------1-1-1-1-1-1-----------------|

D|--------------2-2-2-2-2-2-----------------|

A|-5-4-3--------2-2-2-2-2-2-----------------|

E|-------5-4-3--0-0-0-0-0-0--5-5-3-2-0------|

[Versetto]
D D4 D D4 D
I gotta be cool, relax
G C G
Get hip, get on my tracks
D D4 D D4 D
Take a back seat, hitch-hike
G C G
And take a long ride on my motor bike
D
Until I'm ready
Bb5 C5 D
Crazy little thing called love
[Versetto]
D D4 D D4 D
This thing, called love
G C G
I just can't handle it
D D4 D D4 D
This thing, called love
G C G
I must, get round to it
D
I ain't ready
[Outro]
Bb5 C5 D
Crazy little thing called love
Bb5 C5 D
Crazy little thing called love
Bb5 C5 D
Crazy little thing called love
Bb5 C5 D
Crazy little thing called love
Bb5 C5 D
Crazy little thing called love
Bb5 C5 D
Crazy little thing called love
Bb5 C5 D
Crazy little thing called love
Bb5 C5 D
Crazy little thing called love
Questo sito utilizza i cookie