I Want to Break Free

Per aggiungere un elenco personale è necessario effettuare il
o

Queen

Versione
studio
pubblicato da
iri
Tono
A-
A+
Scorrere
A -> La
Video
Accordi
Traduzione
	 
[Intro]
e|--4b(1/2)---------------5---------------------|

b|--5b(full)--release--3--5---------7--5--5-5---|

g|--6b(1/2)------------4--6---------------6-4---|

D|----------------------------------------------|

A|----------------------------------------------|

E|----------------------------------------------|

e|----------------------------------------------|

b|----------------------------------------------|

g|----------------------------------------------|

D|-----------------9---9-9-9-9------------------|

A|--pick slide-----9---9-9-9-9------------------|

E|--------------0--7---7-7-7-7------------------|

[Intro]
F#sus4 F# A B C#m B A B C#m B A B E5
[Versetto]
N.C. E
I want to break free
E
I want to break free
E
I want to break free from your lies
A
You're so self satisfied I don't need you
E
I've got to break free
B A E
God knows God knows I want to break free
[Versetto]
N.C. E
I've fallen in love
E
I've fallen in love for the first time
A
And this time I know it's for real
E
I've fallen in love yeah
B A E A E A E
God knows God knows I've fallen in love.
[Coro]
B A
It's strange but it's true
B A
I can't get over the way you love me like you do
C#m
But I have to be sure
F#sus4 F#
When I walk out that door
A B C#m B
Oh how I want to be free baby
A B C#m B
Oh how I want to be free
A B E
Oh how I want to break free
[Solo]
E E A E B A E
[Solo]
E E
e|----------------------|------------------------------------------------|

b|----------------------|------------------------------------------------|

g|----------11--13--13b-|----------11--13--13b----------13b--------------|

D|------14--------------|------14---------------14-----------14----------|

A|--14------------------|--14-----------------------14-----------14-12---|

E|----------------------|------------------------------------------------|

A
e|----------------------------------|

b|--14b-----------------------------|

g|-------14-------------------------|

D|-----------14--12--11-12-11-------|

A|-----------------------------12---|

E|----------------------------------|

E

e|------------------------------------------|

b|--14b(14)(14)-----------------------------|

g|--------------14-----13-------------------|

D|-----------------14------14---------------|

A|-----------------------------14--12--11---|

E|------------------------------------------|

B
e|----------|

b|--7b(7)---|

g|----------|

D|----------|

A|----------|

E|----------|

A E
e|---------------------------------|---------------------------------------|

b|--9b(9)------9-------9-----------|---------------------------------------|

g|---------9-------9-------9-------|---------------------------------------|

D|-----------9-------9-------9-6-6-|--7---6-----------5b(5)--2-0-----------|

A|---------------------------------|--------7--------------------2-0-------|

E|---------------------------------|----------7-5-4------------------3-0---|

[Ponte]
E E A E B A E E B A E
[Versetto]
E
But life still goes on
E
I can't get used to living without living without
A
Living without you by my side
E
I don't want to live alone, hey
B A E
God knows got to make it on my own
B
So baby can't you see
B A E
I've got to break free
E
I've got to break free
E
I want to break free, yeah
E
I want, I want, I want, I want to break free
Questo sito utilizza i cookie