Two Of Us

Per aggiungere un elenco personale è necessario effettuare il
o

The Beatles

Versione
studio
pubblicato da
iri
Tono
A-
A+
Scorrere
A -> La
Video
Accordi
Traduzione
	 
[Riff]
e|---7----7--7----------------7----7--7----------|

b|------------------5------------------------5---|

g|-7----7-------7---------7----7---------7-------|

D|-----------------------------------------------|

A|-----------------------------------------------|

E|-----------------------------------------------|

[Versetto]
G
Two of us riding nowhere
C C/B Am7
Spending someone's Hard earned pay
G
You and me Sunday driving Not arriving
C C/B Am7 G
On our way back home
D G
We're on our way home
D G
We're on our way home
C G
We're going home.
[Riff]
e|---7----7--7----------------7----7--7----------|

b|------------------5------------------------5---|

g|-7----7-------7---------7----7---------7-------|

D|-----------------------------------------------|

A|-----------------------------------------------|

E|-----------------------------------------------|

[Versetto]
G
Two of us sending postcards
C C/B Am7
Writing letters On my wall
G
You and me burning matches Lifting latches
C C/B Am7 G
On our way back home
D G
We're on our way home
D G
We're on our way home
C G
We're going home.
[Coro]
Bb Dm
You and I have memories
Gm Am Am7 D
Longer than the road that stretches out ahead.
[Versetto]
G
Two of us wearing raincoats
C C/B Am7
Standing solo In the sun
G
You and me chasing paper Getting nowhere
C C/B Am7 G
On our way back home
D G
We're on our way home
D G
We're on our way home
C G
We're going home.
[Coro]
Bb Dm
You and I have memories
Gm Am Am7 D
Longer than the road that stretches out ahead
[Versetto]
G
Two of us wearing raincoats
C C/B Am7
Standing solo In the sun
G
You and me chasing paper Getting nowhere
C C/B Am7 G
On our way back home
D G
We're on our way home
D G
We're on our way home
C G
We're going home.
[Riff]
e|---7----7--7----------------7----7--7----------|

b|------------------5------------------------5---|

g|-7----7-------7---------7----7---------7-------|

D|-----------------------------------------------|

A|-----------------------------------------------|

E|-----------------------------------------------|

(we're going home, better believe it, goodbye)

Questo sito utilizza i cookie