Fortunate Son

Para añadir a una lista personal debes
ó

Creedence Clearwater Revival

Versión
estudio
publicado por
iri
Tono
A-
A+
Deslizar
A -> La
Video
Acordes
Traducción
	 
[Intro]
G F C G
e|----3-------------|------------------|------------------|-------------------|

b|------------------|----6-------------|----5-------------|----3--------------|

g|-2/4--------------|------------------|------------------|-------------------| x2

D|------------------|-5/7--------------|-3h5--------------|-3h5---------------|

A|------------------|------------------|------------------|-------------------|

E|------------------|------------------|------------------|----------6b-3-----|

[Estrofa]
G F
Some folks are born made wave the flag,
C G
Ooh, that red, white and blue, dog
G F
And when the band plays hail to the chief,
C G
Ooh, they point the cannon at you, lord
[Estribillo]
G D C G
It ain't me, it ain't me, I ain't no senator's son, son
G D C G
It ain't me, it ain't me, I ain't no fortunate one, no
[Estrofa]
G F
Some folks are born silver spoon in hand,
C G
Lord, don't they help themselves, oh
G F
But when the taxman comes to the door,
C G
Lord, the house lookin' like a rummage sale, yeah.
[Estribillo]
G D C G
It ain't me, it ain't me, I ain't no millionaire's son, dog
G D C G
It ain't me, it ain't me, I ain't no fortunate one, no.
[Tablatura]
e|------------------|-----------------|-----------------|-----------------|

B|-/6---------------|-5-----------5-\-|-1---------------|-1/3-------------|

G|-/7---------------|-6-----------6-\-|-2---------------|-2/4-------------| x2

D|------------------|-----------------|-----------------|-----------------|

A|------------------|-----------------|-----------------|-----------------|

E|------------------|-----------------|-----------------|-----------------|

[Estrofa]
G F
Some folks inherit star spangled eyes,
C G
Ooh, and they send you down to war, lord,
G F
And when you ask them, how much should we give?
C G
Ooh, the only answer is more! more! more! yeah!
[Estribillo]
G D C G
It ain't me, it ain't me, I ain't no military son, dog
G D C G
It ain't me, it ain't me, I ain't no fortunate one, one
G D C G
It ain't me, it ain't me, I ain't no military son, dog
G D C G
It ain't me, it ain't me, I ain't no military son, dog
Este sitio usa cookies