Wholl Stop The Rain

Para añadir a una lista personal debes
ó

Creedence Clearwater Revival

Versión
estudio
publicado por
iri
Tono
A-
A+
Deslizar
A -> La
Video
Acordes
Traducción
	 
[Intro]
G E
e|-------3-------|-------3-------|-------3-------|

B|---0-----------|---0-----------|---0-----------|

G|-----0---------|-----0---------|-----0---------|

D|---------------|---------------|---------------|

A|---------------|---------------|---------------|

E|-3-------------|-3----------2--|-0-------------|

E G
e|-------3-------|-------3-------|-------3-------|

B|---0-----------|---0-----------|---0-----------|

G|-----0---------|-----0---------|-----0---------|

D|------------0--|---------------|---------------|

A|---------------|---------------|---------------|

E|-0-------------|-3-------------|-3-------------|

[Estrofa]
G C G
Long as I remember the rain been comin' down
G C G
Clouds of mystery pourin' confusion on the ground
[Estribillo]
C G
Good men through the ages
C G
Tryin' to find the sun
C D
And I wonder still I wonder
Em G
Who'll stop the rain.
[Estrofa]
G C G
I went down Virginia seeking shelter from the storm
G Bm C G
Caught up in the fable I watched the tower grow
[Estribillo]
C G
Five-year plans and new deals
C G
Wrapped in golden chains
C D
And I wonder, still I wonder
[Puente]
| C G D |(D) | Am C Em |(Em) D | G | G |
[Estrofa]
G C G
Heard the singers playin', how we cheered for more
G Bm C G
The crowd had rushed together, just tryin to keep warm
[Estribillo]
C G
Still the rain kept pourin'
C G
Fallin on my ears
C D
And I wonder, still I wonder
Em
Who'll stop the rain...
[Tablatura]
e|-------3-------|-------3-------|-------3-------|-------3-------|

b|---0-----------|---0-----------|---0-----------|---0-----------|

g|-----0---------|-----0---------|-----0---------|-----0---------|

D|---------------|---------------|---------------|------------0--|

A|---------------|---------------|---------------|---------------|

E|-3-------------|-3----------2--|-0-------------|-0-------------|

Este sitio usa cookies