Run Through The Jungle

+ nueva lista

Creedence Clearwater Revival

Versión
estudio
publicado por
iri
Tono
A-
A+
Deslizar
A -> La
Video
Acordes
Traducción
	 
[Intro]
e|----------|--------------|-----------|---1---------|----------|--------------|

b|----1---3-|--------------|-----1---3-|-3-1-3---1-3-|----1---3-|--------------|

g|------2---|-1-0----------|-------2---|-2---2-2-----|------2---|-1-0----------|

D|----------|-----3-0----0-|-----------|-------------|----------|-----3-0------|

A|----------|--------0-3---|-----------|-------------|----------|---------0-3--|

D|-0--------|--------------|-0---------|-------------|-0--------|--------------|

e|---|----------|-1----------------|----------|---------------|---------------|

b|---|----1-3-3-|-1--3--3-----1--3-|----1---3-|---------------|---1---3-------|

g|---|----2-2-2-|-2--2--2--2-------|------2---|-1-0-----------|-----2---------|

D|-0-|-0--------|------------------|----------|-----3-0-----0-|---------------|

A|---|----------|------------------|----------|---------0-3---|---------------|

D|---|----------|------------------|-0--------|---------------|-0-------------|

[Intro]
[Estrofa]
Dm
Whoa, thought it was a nightmare, low, it's all so true
Dm
They told me, don't go walking slow, the devil's on the loose
[Estribillo]
Dm
Better run through the jungle
Dm
Better run through the jungle
Dm
Better run through the jungle
Dm
Don't look back to see
[Estrofa]
Dm
Thought I heard a rumbling, calling to my name
Dm
Two hundred million guns are loaded, Satan cries, "Take aim"
[Estribillo]
Dm
Better run through the jungle
Dm
Better run through the jungle
Dm
Better run through the jungle
Dm
Don't look back to see
[Solo]
e|---------------|----1-------|-------------|----1--------|--------------------|

b|---------------|----2--3----|-1-3-3-------|-------3---3-|-1------------------|

g|-1-0-----------|-------2--2-|-------------|----2----2---|-----2--1--0--------|

D|-----3-0-----0-|------------|-------------|-------------|--------------3--0--|

A|---------0-3---|------------|-------------|-------------|--------------------|

D|---------------|-0----------|--------0-3b-|-0-----------|--------------------|

e|---------|-----------|-----------|-------------|-----------|-----------------|

b|-1--3----|-1-3-3---3-|-----------|-------------|-------1---|-----------------|

g|-2-----2-|-------2---|-2-1-0-----|-------------|----2----2-|-1-0-------------|

D|---------|-----------|-------3-0-|-----0--0-3b-|----0------|-----3-0-----0---|

A|---------|-----------|-----------|-0-3---------|-----------|---------0-3-----|

D|---------|-----------|-----------|-------------|-0---------|-----------------|

e|------------|-------------|-----------|---------------|---1------------------|

b|----1--1----|-------------|-------1---|---------------|------3-3---1-3-2-----|

g|----2-----2-|-1-0---------|----2----2-|-1-0-----------|---2--2---2-----------|

D|------------|-----3-0-----|----0------|-----3-0-----0-|----------------------|

A|------------|-------------|-----------|---------0-3---|----------------------|

D|-0----------|---------0-3-|-0---------|---------------|-0----------------03b-|

[Estrofa]
Dm
Over on the mountain, thunder magic spoke
Dm
"Let the people know my wisdom, fill the land with smoke"
[Estribillo]
Dm
Better run through the jungle
Dm
Better run through the jungle
Dm
Better run through the jungle
Dm
Don't look back to see
[Solo]
e|---------------|----1-------|-------------|----1--------|--------------------|

b|---------------|----2--3----|-1-3-3-------|-------3---3-|-1------------------|

g|-1-0-----------|-------2--2-|-------------|----2----2---|-----2--1--0--------|

D|-----3-0-----0-|------------|-------------|-------------|--------------3--0--|

A|---------0-3---|------------|-------------|-------------|--------------------|

D|---------------|-0----------|--------0-3b-|-0-----------|--------------------|

e|---------|-----------|-----------|-------------|-----------|-----------------|

b|-1--3----|-1-3-3---3-|-----------|-------------|-------1---|-----------------|

g|-2-----2-|-------2---|-2-1-0-----|-------------|----2----2-|-1-0-------------|

D|---------|-----------|-------3-0-|-----0--0-3b-|----0------|-----3-0-----0---|

A|---------|-----------|-----------|-0-3---------|-----------|---------0-3-----|

D|---------|-----------|-----------|-------------|-0---------|-----------------|

e|------------|-------------|-----------|---------------|---1------------------|

b|----1--1----|-------------|-------1---|---------------|------3-3---1-3-2-----|

g|----2-----2-|-1-0---------|----2----2-|-1-0-----------|---2--2---2-----------|

D|------------|-----3-0-----|----0------|-----3-0-----0-|----------------------|

A|------------|-------------|-----------|---------0-3---|----------------------|

D|-0----------|---------0-3-|-0---------|---------------|-0----------------03b-|

Este sitio usa cookies