Green River

Para añadir a una lista personal debes
ó

Creedence Clearwater Revival

Versión
estudio
publicado por
iri
Tono
A-
A+
Deslizar
A -> La
Video
Acordes
Traducción
	 
[Intro]
e|------------------------|---------------------------|-----------------|

b|------/3--3--3--3-------|--/3--3--3--3--------------|-----------------|

g|------/4--4--4--4-------|--/4--4--4--4--0h2---0-----|-----------------|

D|------------------------|--------------------------0h2--2-----0-------|

A|------------------------|---------------------------|-----0h2---------|

E|-0----------------------|---------------------------|-----------------|

E E
e|------------------------|----------------------------|

b|------------------------|-----/3--3--3--3------------|

g|------------------------|-----/4--4--4--4------------|

D|--2-2--------0-----2----|----------------------------|

A|--------0h2-------------|----------------------------|

E|------------------------|----------------------------|

E E E
e|------------------------|---------------------------|------------------|

b|--/3--3--3--3-----------|---------------------------|------------------|

g|--/4--4--4--4--0h2--0---|---------------------------|------------------|

D|----------------------0h2-2-----0--2-2-----0--2-----|------------------|

A|------------------------|---0h2--------0h2----------|------------------|

E|------------------------|---------------------------|------------------|

[Estrofa]
E
Well take me back down where cool water flows yeah
E
Let me remember things I love
E
Stoppin at the log where catfish bite
C
Walkin along the river road at night
A E7
Barefoot girls dancin in the moonlight
[Estrofa]
E
I can hear the bullfrog callin me
E
Wonder if my ropes still hangin to the tree
E
Love to kick my feet way down the shallow water
C
Shoofly, dragonfly, get back to mother
A E7 C A
Pick up a flat rock, skip it across green river.
[Solo]
well...
e|-0--------0------------------------|---------10-11-12b-------------------|

b|-5b--------3-0---------------------|-------------------------------------|

g|--------------2-0----3b3-2-0-------|-------------------------------------|

D|-----------------2----------2-0-2--2b3-2b3-2b3-2b3-0---3b4-3b4-2-0-------|

A|-----------------------------------|-------------------------------2-0-2-|

e|-----------------------------------|-------------------------------------|

e|---------10-11-12b-----------------10b11---12----------0------------0---|

b|------------------------------------|-----------/3-3-3-3--/3-3-3-3--5---|

g|-------0---2b3-2-0---------------2-0--2b3r2-0---/4-4-4-4--/4-4-4-4--4---|

D|---0h2--0h2-------2----0h2-0h2-2-2-2--2-------2-------------------------|

A|-3-------------------0--------------|-----------------------------------|

e|------------------------------------|-----------------------------------|

[Estrofa]
E
Up at codys camp I spent my days, oh,
E
With flat car riders and cross-tie walkers
E
Old cody junior took me over
C
Said, youre gonna find the world is smouldrin.
A E7
And if you get lost come on home to green river.
[Solo]
well
e|-0--------0-------------------|-10-11-12--12-----------------|

b|-5b--------3-0----------------|--------------15-12-----------|

g|--------------2-0----3b3-2-0--|--------------------14-12-----|

D|-----------------2----------2-|--------------------------14--|

A|------------------------------|------------------------------|

e|------------------------------|------------------------------|

Este sitio usa cookies