Desapariciones

Per aggiungere un elenco personale è necessario effettuare il
o

Los Fabulosos Cadillacs

Versione
studio
pubblicato da
iri
Tono
A-
A+
Scorrere
A -> La
Video
Accordi
Traduzione
	 
[Intro]
Am | Am G | Am G | Am
E|-----------------|----------------| |----------|----------| |--------------|

B|-----------------|----------------| |----------|----------| |--------------|

G|-------------5h7-|----9-7-5-7-9-7-|x2|-7-7--7-7-|-5-5--5-5-|x2|-7-7--7-7-(7)-|

D|-7-7--7-5--7-----|-7--------------| |----------|----------| |--------------|

A|-----------------|----------------| |----------|----------| |--------------|

E|-----------------|----------------| |----------|----------| |--------------|

[Versetto]
Am G
Que alquien me diga si ha visto a mi esposo, preguntaba la doña,
Am G
se llama Ernesto y tiene 40 años,
F C
trabaja de peón en un negocio de autos,
F C
llevaba camisa oscura y pantalón claro
E7 Am
Salió de noche y no ha regresado,
D E7
y yo no sé ya que pensar
Am (Am - G)
porque esto antes no me había pasado
[Versetto]
Am G
Llevo tres días buscando a mi hermana,
Am G
se llama Alta Gracia igual que la abuela,
F C (C - F)
salió del trabajo para la escuela,
F C
llevaba puestos jeans y una camisa blanca
E7 Am
No ha sido el novio, el tipo está en su casa,
D E7
no saben de ella en la policía,
Am
ni en el hospital
G Am G E7
Ohohohoh ni en el hospital, Ohohohohohoh
[Versetto]
Am G
Ay por favor, que alguien me diga si ha visto a mi hijo,
Am G
es estudiante de medicina,
F C (C - F)
se llama Agustín y es un buen muchacho,
F C
es a veces terco cuando opina
E7 Am
Lo han detenido, no sé que fuerza,
D E7
pantalón blanco, camisa a rayas,
Am
pasó anteayer
G Am G E7
Ohohohoh paso anteayer, no... Ohohohohohoh
[Versetto]
Am G
Cla cla Clara Quiñones se llama mi madre,
Am G
ella es un alma de Dios y no se mete con nadie,
F C (C - F)
se la han llevado de testigo
F C
por un asunto que es nada más conmigo
E7 Am
Y yo fuí a entregarme hoy por la tarde,
D E7
y ahora ví que no saben quién se la llevó
Am
del cuartel
G Am G E7
Ohohohoh quien se la llevó, no... Ohohohohohoh
[Versetto]
Am G
Anoche escuché varias explosiones,
Am G
tiros de escopeta y de revólver,
F C (C - F)
autos acelerados, frenos, gritos,
F C
ecos de botas en las calles,
E7 Am
toques de puertas, quejas, pordioses, platos rotos,
D E7
estaban dando la telenovela,
Am (Am - G)
por eso nadie miró pa'afuera
(Am - G)
¡Avestruz!
[Tab]
| Am G | Am
E|----------|----------|-----------------|

B|----------|----------|-----------------|

G|-7-7--7-7-|-5-5--5-5-|-------------5h7-|

D|----------|----------|-7-7--7-5--7-----|x2

A|----------|----------|-----------------|

E|----------|----------|-----------------|

[Coro]
Am G
A donde van los desaparecidos?
Am
busca en el agua y en los matorrales
G
y por qué es que se desaparecen?
Am
porque no todos somos iguales
G
y cuándo vuelve el desaparecido?
Am
cada vez que lo trae el pensamiento
G
como se llama al desaparecido?
Am
una emoción apretando por dentro
Am G
A dónde van los desaparecidos?
Am
busca en el agua y en los matorrales, mujer
G
y por qué es que se desaparecen?
Am
porque no todos somos iguales
G
y cuándo vuelve el desaparecido?
Am
cada vez que lo trae el pensamiento ma`
G
cómo se llama al desaparecido?
Am
una emoción apretando por dentro
[Outro]
G
ohohohoh
Am G
busca en el agua y en los matorrales ohohohoh
Am G
porque no todos somos iguales ohohohoh
Am G
cada vez que lo trae el pensamiento ohohohoh
Am G
una emoción apretando por dentro ohohohoh
Questo sito utilizza i cookie