Siguiendo La Luna

Per aggiungere un elenco personale è necessario effettuare il
o

Los Fabulosos Cadillacs

Versione
studio
pubblicato da
rafah
Tono
A-
A+
Scorrere
A -> La
Video
Accordi
Traduzione
	 
[Intro]
Em D
[Tab]
E|----------------------------------------------------|

B|----------------------------------------------------|

G|----------------------------------------------------|

D|----------------------------------------------------|

A|----------------------------------------------------|

E|--4--5-5--4--4--5--5--4--4--5--5--5--5--------------|

E|--2-0----2-0-------2-0-----2--0---------------------|

B|------0----------------0----------------------------|

G|--------------2------------------2------------------|

D|----------------------------------------------------|

A|----------------------------------------------------|

E|----------------------------------------------------|

[Versetto]
D
Siguiendo la luna no llegare lejos
Em
Tan lejos como se pueda llegar
D
Las cosas que dije no tienen sentido
C
No puedo detenerme
G Em
Ponerme a pensar
[Versetto]
D
Siguiendo la luna y su vuelta invisible
Em
La noche seguro me alcanzará
D
No es que tu mirada me sea imposible
C G
Tan solo es la forma como caminás
[Coro]
C G
Vamos mi cariño que todo esta bien
Bm
Esta noche cambiaré
D
Te juro que cambiaré
C G
Vamos mi cariño ya no llores más
Bm
Por vos yo bajaría el sol
D
O me hundiría en el mar
C G Em
Y esto parece verdad para mí
[Versetto]
D
Suena como un crimen lo que tu me has hecho
Em
Deberías ir a parar a la prisión
D
Suena como un crimen que me hayas mentido
C G Em
Que hayas engañado a este corazón
[Versetto]
D
Siguiendo la luna no llegaré lejos
Em
Tan lejos como se pueda llegar
D
Son casi las 4 de la madrugada
C G
Mi casa brillaba cruzando ese mar
[Strumentale]
(Em D)x2
[Coro]
C G
Vamos mi cariño que todo esta bien
Bm
Esta noche cambiaré
D
Te juro que cambiaré
C G
Vamos mi cariño ya no llores más
Bm
Por vos yo bajaría el sol
D
O me hundiría en el mar
C G
Y esto parece verdad para mí
C G
Y esto parece verdad para mí
C G
Y esto parece verdad para mí
[Outro]
C G
Questo sito utilizza i cookie