El Satánico Dr. Cadillac

Per aggiungere un elenco personale è necessario effettuare il
o

Los Fabulosos Cadillacs

Versione
studio
pubblicato da
iri
Tono
A-
A+
Scorrere
A -> La
Video
Accordi
Traduzione
	 
[Riff]

e------------|

b-3--4--3--4-|

G------------|

D------------|

A------------|

E------------|


e--------------------------|--------------------------|

b---3--4--3-----3--4--3--4-|---3--4--3-----3--4--4--3-|

G-5----------5-------------|-5----------5-------------|

D--------------------------|--------------------------|

A--------------------------|--------------------------|

E--------------------------|--------------------------|


e-------------------------|-------------------------|

b---1--3--1----1--3--1--3-|---1--3--1----1--3--3--1-|

G-3----------3------------|-3----------3------------|

D-------------------------|-------------------------|

A-------------------------|-------------------------|

E-------------------------|-------------------------|



e---------------------|-------2-2-2-2-2-3-2-3--|

b-------1-----1-----1-|-1--3-------------------|

G-2--3-----3-----3----|------------------------|

D---------------------|------------------------|

A---------------------|------------------------|

E---------------------|------------------------|

Antes del Riff, va Gm x8
[Intro]
Gm x8
[Versetto]
Cm
Voy a tomar por vos, otro trago para olvidar
Gm
que el miedo te comió los pies
D
y que ahora sos un tipo mas, y que poco a poco te fuiste yendo
Gm
y que poco a poco te fuiste yendo de nuestro lugar
[Versetto]
Cm
Te sienta bien el sol, te sienta bien ser cool,
Gm
te sienta bien el mal, te sienta bien ser Dios,
D
te sienta bien mentir y decir
Gm Bb
que te fuiste yendo de nuestro lugar
[Coro]
Eb
Que es lo que ha pasado con tu corazón, ya no marca el paso que marcaba ayer
Bb
nunca fuiste libre y esa es la razon, siempre hay un idiota para convencer
Cm
hablas toda la noche como un boy scout, hablas sobre mi vida como tu papa
D D
Los Cadillacs tocando para vos, Los Cadillacs tocando para vos.
[Coro]
Eb
Que es lo que ha pasado con tu corazón, ya no marca el paso que marcaba ayer
Bb
nunca fuiste libre y esa es la razon, siempre hay un idiota para convencer
Cm
hablas toda la noche como un boy scout, hablas sobre mi vida como tu papa
D D
Los Cadillacs tocando para vos, Los Cadillacs tocando para vos.
D D
Los Cadillacs tocando para vos, Los Cadillacs tocando para vos.
[Ponte]
Gm x8
[Riff]
e------------|

b-3--4--3--4-|

G------------|

D------------|

A------------|

E------------|

e--------------------------|--------------------------|

b---3--4--3-----3--4--3--4-|---3--4--3-----3--4--4--3-|

G-5----------5-------------|-5----------5-------------|

D--------------------------|--------------------------|

A--------------------------|--------------------------|

E--------------------------|--------------------------|

e-------------------------|-------------------------|

b---1--3--1----1--3--1--3-|---1--3--1----1--3--3--1-|

G-3----------3------------|-3----------3------------|

D-------------------------|-------------------------|

A-------------------------|-------------------------|

E-------------------------|-------------------------|

e---------------------|-------2-2-2-2-2-3-2-3--|

b-------1-----1-----1-|-1--3-------------------|

G-2--3-----3-----3----|------------------------|

D---------------------|------------------------|

A---------------------|------------------------|

E---------------------|------------------------|

[Versetto]
Cm
Voy a tomar por vos, otro trago para olvidar
Gm
que el miedo te comió los pies
D
y que ahora sos un tipo mas, y que poco a poco te fuiste yendo
Gm Bb
que te fuiste yendo de nuestro lugar
[Versetto]
Cm
Te sienta bien el sol, te sienta bien ser cool,
Gm
te sienta bien el mal, te sienta bien ser Dios,
D
te sienta bien mentir y decir
Gm Bb
que te fuiste yendo de nuestro lugar
[Coro]
Eb
Que es lo que ha pasado con tu corazón, ya no marca el paso que marcaba ayer
Bb
nunca fuiste libre y esa es la razon, siempre hay un idiota para convencer
Cm
hablas toda la noche como un boy scout, hablas sobre mi vida como tu papa
D D
Los Cadillacs tocando para vos, Los Cadillacs tocando para vos.
[Coro]
Eb
Que es lo que ha pasado con tu corazón, ya no marca el paso que marcaba ayer
Bb
nunca fuiste libre y esa es la razon, siempre hay un idiota para convencer
Cm
hablas toda la noche como un boy scout, hablas sobre mi vida como tu papa
D D
Los Cadillacs tocando para vos, Los Cadillacs tocando para vos.
D D
Los Cadillacs tocando para vos, Los Cadillacs tocando para vos.
[Solo]
Gm
solo bajo
[Strumentale]
Eb - Bb - Cm - D
Questo sito utilizza i cookie