Vasos vacíos

Per aggiungere un elenco personale è necessario effettuare il
o

Los Fabulosos Cadillacs

Versione
studio
pubblicato da
iri
Tono
A-
A+
Scorrere
A -> La
Video
Accordi
Traduzione
	 
[Intro]
G Em C D
E|-3-2--------3-2-5-2------3-2------3-2---------------|

B|-----3------------------------3--------3-0-3--------|

G|----------------------------------------------------|

D|----------------------------------------------------|

A|----------------------------------------------------|

E|----------------------------------------------------|

[Versetto]
G
No sé bien que día es hoy
Em
Solo se que te vi salir
C
Y en cinco minutos perdí
D
Las letras para hablarte a vos
[Versetto]
G
Yo sé que no tengo palabras
Em
Y nunca las voy a tener
C
Por eso aprovecho esta noche
D
Tal vez lo puedas entender
[Versetto]
G
Por eso aprovecho esta noche
Em
Tal vez lo puedas entender
C
No me importa poner las letras
D
Solo me importa mi mujer
[Versetto]
G
Mañana cuando te levantes
Em
Y pienses lo que dije ayer
C
Ay nena porque en este juego
D
A mí siempre me toca perder
[Coro]
C
Siempre habrá vasos vacíos
G G D Em
Con agua de la ciudad
C D
La nuestra es agua de río
G D
Mezclada con mar
C
Levanta lo brazos mujer
G G D Em
Y ponte esta noche a bailar
C D
La nuestra es agua de río
G D
Mezclada con mar
[Intro]
G Em C D
E|-3-2--------3-2-5-2------3-2------3-2---------------|

B|-----3------------------------3--------3-0-3--------|

G|----------------------------------------------------|

D|----------------------------------------------------|

A|----------------------------------------------------|

E|----------------------------------------------------|

[Versetto]
G
No sé bien que día es hoy
Em
Solo sé que te vi salir
C
Y en cinco minutos perdí
D
Las letras para hablarte a vos
[Versetto]
G
Yo sé que no tengo palabras
Em
Y nunca las voy a tener
C
Por eso aprovecho esta noche
D
Talves lo puedas entender
[Versetto]
G
Por eso aprovecho esta noche
Em
Talvez lo puedas entender
C
No me importa poner las letras
D
Solo me importa mi mujer
[Versetto]
G
Mañana cuando te levantes
Em
Y pienses lo que dije ayer
C
Ay nena porque en este juego
D
A mí siempre me toca perder
[Coro]
C
Siempre habrá vasos vacíos
G G D Em
Con agua de la ciudad
C D
La nuestra es agua de río
G D
Mezclada con mar
C
Levanta lo brazos mujer
G G D Em
Y ponte esta noche a bailar
C D
La nuestra es agua de río
G D
Mezclada con mar
[Ponte]
G Em C D
[Ponte]
G
Aquí te quiero decir
Em
No te preocupes mi amor
C
Que yo te voy a entender
D
Que yo te voy a querer
[Coro]
C
Siempre habrá vasos vacíos
G G D Em
Con agua de la ciudad
C D
La nuestra es agua de río
G D
Mezclada con mar
C
Levanta lo brazos mujer
G G D Em
Y ponte esta noche a bailar
C D
La nuestra es agua de río
G D
Mezclada con mar
[Outro]
C G Em D
Questo sito utilizza i cookie