Dig A Pony

Per aggiungere un elenco personale è necessario effettuare il
o

The Beatles

Versione
studio
pubblicato da
iri
Tono
A-
A+
Scorrere
A -> La
Video
Accordi
Traduzione
	 
[Riff]
e|-------------------------------------------------|

b|-------------------------------------------------|

g|------------------------------4--7--4------------|

D|------------2--5--2-----4--7---------------------|

A|------2--5-----------3/5-------------------------|

E|--1/3--------------------------------------------|

e|-------------------------------------------------|

b|-------------------------------------------------|

g|-----------------------------2-------------------|

D|--5--5--5---------2--h3--h4-----4--2---------2---|x2

A|--0--0--0--3--h4----------------------3--h4------|

E|-------------------------------------------------|

[Versetto]
A F#m
I... I hi hi, I hi hi... dig a pony
Bm G7
Well you can celebrate any thing you want... yes
Bm G7 E7
You can celebrate any thing you want ohhh...
[Versetto]
A F#m
I... I hi hi, I hi hi... do a roadhog
Bm G7
Well you can penetrate any place you go... yes
Bm G7
you can penetrate any place you go
E7
I told you so.
[Coro]
G D A
All I want is you
G D A
Everything has got to be just like you want it to... because.
[Riff]
Over A chorus / Sobre A del estribillo

e|-----------------------------------|

b|-----------------------------------|

g|--------------------2--------------|

D|--------------2h3h4---4-2------2---|

A|--0-0-0--3-4---------------3h4-----|

E|-----------------------------------|

[Versetto]
A F#m
I... I hi hi, I hi hi... pick a moondog
Bm G7
Well you can radiate every thing you are yes...
Bm G7 E7
Yes you can radiate every thing you are ohhh now...
[Versetto]
A F#m
I... I hi hi, I hi hi... roll a Stone
Bm G7
Well you can imitate everyone you know yes...
Bm G7
you can imitate everyone you know
E7
I told you so
[Coro]
G D A
All I want is you
G D A
Everything has got to be just like you want it to... because.
[Riff]
Over A chorus / Sobre A del estribillo

e|-----------------------------------|

b|-----------------------------------|

g|--------------------2--------------|

D|--------------2h3h4---4-2------2---|

A|--0-0-0--3-4---------------3h4-----|

E|-----------------------------------|

[Solo]
A - F#m

Bm - G

Bm - G -E7


[Versetto]
A F#m
I... I hi hi, I hi hi... fell the wind blow
Bm G7
Well you can indicate everything you see yes...
Bm G7 E7
You can indicate anything you see ohh now.
[Versetto]
A F#m
I... I hi hi, I hi hi... load a lorry
Bm G7
Well you can syndicate any boat you row yeah.
Bm G7
You can syndicate any boat you row
E7
I told you so
[Coro]
G D A
All I want is you
G D A
Everything has got to be just like you want it to... because.
[Riff]
Para hacer sobre el A del estribillo

e|-----------------------------------|

b|-----------------------------------|

g|--------------------2--------------|

D|--------------2h3h4---4-2------2---|

A|--0-0-0--3-4---------------3h4-----|

E|-----------------------------------|

[Riff]
e|-------------------------------------------------|

b|-------------------------------------------------|

g|------------------------------4--7--4------------|

d|------------2--5--2-----4--7---------------------|

a|------2--5-----------3/5-------------------------|

e|--1/3--------------------------------------------|


e|-------------------------------------------------|

b|-------------------------------------------------|

g|-----------------------------2-------------------|

d|--5--5--5---------2--h3--h4-----4--2---------2---|x2

a|--0--0--0--3--h4----------------------3--h4------|

e|-------------------------------------------------|

A
Questo sito utilizza i cookie