Hey Bulldog

+ Nuovo Elenco

The Beatles

Versione
studio
pubblicato da
iri
Tono
A-
A+
Scorrere
A -> La
Video
Accordi
Traduzione
	 
[Intro]
B5 B7 F#m
e|----------------|----------------| |----------------|----------------|

B|----------------|----------------| |----------------|----------------|

G|----------------|----------------| |----------------|----------------|

D|-------2--3---4-|-------4--3---2-| |-------2--3---4-|----------------|

A|2-2-5-2--2------|2-2-5-2--2------| |2-2-5-2--2------|-------4--3---2-|

E|----------------|----------------| |----------------|2-2-5-2--2------|

[Intro]
| B5 | % | % | % |
[Versetto]
B7 F#m
Sheepdog, standing in the rain
B7 F#m
Bullfrog, doing it again
A F#m E
Some kind of happiness is measured out in miles
A F#m B7
What makes you think you're Something special when you smile
[Versetto]
B7 F#m
Childlike no one understands
B7 F#m
Jackknife in your sweaty hands
A F#m E
Some kind of innocence is measured out in years
A F#m B7
You don't know what it's like to listen to your fears
[Coro]
Bm G/B Bm6
You can talk to me
Bm7 Em
You can talk to me
C/E Em6 Em7
You can talk to me
Bm * E7 B5
If you're lonely, you can talk to me
[Intro]
B5 B7 F#m

e|----------------|----------------| |----------------|----------------|

B|----------------|----------------| |----------------|----------------|

G|----------------|----------------| |----------------|----------------|

D|-------2--3---4-|-------4--3---2-| |-------2--3---4-|----------------|

A|2-2-5-2--2------|2-2-5-2--2------| |2-2-5-2--2------|-------4--3---2-|

E|----------------|----------------| |----------------|2-2-5-2--2------|

[Intro]
| B5 | B7 | F#m |
[Solo]
| B7 | F#m7 | B7 | F#m7 |

| A F#m | E |

| A F#m | B7 |

[Versetto]
B7 F#m
Big man walking in the park
B7 F#m
Wigwam frightened of the dark
A F#m E
Some kind of solitude is measured out in you
A F#m B7
You think you know but you haven't got a clue
[Coro]
Bm G/B Bm6
You can talk to me
Bm7 Em
You can talk to me
C/E Em6 Em7
You can talk to me
Bm * E7 B5
If you're lonely, you can talk to me
[Tab]
B5 B7 F#m

e|----------------|----------------| |----------------|----------------|

B|----------------|----------------| |----------------|----------------|

G|----------------|----------------| |----------------|----------------|

D|-------2--3---4-|-------4--3---2-| |-------2--3---4-|----------------|

A|2-2-5-2--2------|2-2-5-2--2------| |2-2-5-2--2------|-------4--3---2-|

E|----------------|----------------| |----------------|2-2-5-2--2------|

[Outro]
B7 F#m B7 F#m
Hey, bulldog
Questo sito utilizza i cookie