Legalícenla

Per aggiungere un elenco personale è necessario effettuare il
o

Viejas Locas

Versione
studio
pubblicato da
iri
Tono
A-
A+
Scorrere
A -> La
Video
Accordi
Traduzione
	 
[Intro]
Am Em Dm Dm
e|-0--0-------|-------0-----|------1----0h1--1-----1--------|

b|-1----1-----|---------0---|-3--3---3---------3------3-----|

g|-2------2-0-|----0------0-|-2-----------------------2--0--|

D|-2----------|-2-----------|-0-----------------------------|

A|-0----------|-------------|-------------------------------|

E|------------|-------------|-------------------------------|

Am Em Dm Em
e|----0-------|-------0-----|----1------|-0-0-0---------|

B|------1-----|---------0---|-3----3--3-|-0-0-0---------|

G|-2------2-0-|----0------0-|-2-------2-|-0-0-0---------|

D|-2----------|-2-----------|-0-------0-|-2-2-2---------|

A|-0----------|-------------|-----------|-2-2-2---------|

E|------------|-------------|-----------|-0-0-0---------|

[Intro]
Am Em Dm Dm
Legalícenla
Am Em Dm Dm
Legalícenla
Am Em Dm Dm
Legalícenla oh ooh oooh
Am Em Dm Dm
Legalícenla oh ooh oooh
[Versetto]
Am Em
Hubo tiempos de guerra, tiempos de paz,
Dm
hubo tiempo en que era ilegal
Am Em
Pero hermano nuestra mente cambio,
Dm
hoy no podemos seguir con esa tradición. No
Am Em Dm
Son tiempos de cambio y el tiempo al mismo tiempo cambió
Am Em Dm Em
Si hasta la terrible ley seca cayó.
[Coro]
Am Em Dm Dm
Legalícenla oh ooh oooh
Am Em Dm Dm
Legalícenla oh ooh oooh
[Versetto]
Am Em
Vos tenés conciencia de saber
Dm Dm
y que está bien y que está mal
Am Em
La policía debe llevarte si robás o asesinás
Dm Dm
Pero no entiendo por qué no estoy en libertad
Am Em
Sólo por fumar la hierba de la paz
[Coro]
Am Em Dm Dm
Legalícenla oh ooh oooh
Am Em Dm Dm
Legalícenla oh ooh oooh legalícenla
[Solo]
Am Am Dm Em
e|-------7h8-7--------------7h8-7------------------------------|

b|---10--------10-------10--------10-----6-6-6-6--6-6h8p6--5-5-|

g|-9--------------9---9--------------9-------------------------|

D|-------------------------------------------------------------|

A|-------------------------------------------------------------|

E|-------------------------------------------------------------|

Am Am Dm Em
e|------7h8-7---------------7h8-7-------|-------------------------------------|

b|---10--------10-------10--------10----|--6-6-6-6--6-6h8p6--5-5h6p5--3-3h5p3-|

g|-9--------------9---9--------------9--|-------------------------------------|

D|--------------------------------------|-------------------------------------|

A|--------------------------------------|-------------------------------------|

E|--------------------------------------|-------------------------------------|

Am Am Dm Em
e|----------------------------------------------------------------|

b|----------------------------------------------------------------|

g|-5-5h7p5--4-4h5p4--2-2h4--2-0-0h2--2-4-s5--4-5-s7---5-7s9--7-s10|

D|----------------------------------------------------------------|

A|----------------------------------------------------------------|

E|----------------------------------------------------------------|

Am Am Dm Em
e|------7h8-7-------------7h8-7------------------------------|

b|---10-------10-------10-------10----8---6-6-6-6-6s8--8-8-8-|

g|-9-------------9---9-------------9-------------------------|

D|-----------------------------------------------------------|

A|-----------------------------------------------------------|

E|-----------------------------------------------------------|

[Coro]
Am Em Dm Dm
Legalícenla oh ooh oooh
Am Em Dm Dm
Legalícenla oh ooh oooh
[Versetto]
Am Em
Si mis cigarros tienen otro relleno,
Dm Dm
¿por qué me miras mal?
Am Em Dm Dm
Si de la tierra crece hierba santa, ¿por qué no la puedo fumar?
Dm Dm
¿por qué no la puedo fumar? Pagamos precios…
[Versetto]
Am Em
Pagamos precios y riesgos muy caros para conseguir
Am Em Dm Dm
Lo que la naturaleza nos da, nadie nos debería prohibir
Am Em Dm Dm
Y canto esto para que me escuchen, y se den cuenta
Am Em Dm Dm
Hay mucha gente que no quiere estar presa por fumar hierba
Am Em Dm Dm
Somos una nueva raza, una nueva generación
Am Em Dm Dm
Pongamos fin a esta tradición
[Coro]
Am Em Dm Dm
Legalícenla oh ooh oooh
Am Em Dm Dm
Legalícenla oh ooh oooh
Am Em Dm Dm
Legalícenla oh ooh oooh
Am Em Dm Dm
Legalícenla oh ooh oooh
Am Am Am Am
[Tab]
e|----------------|---|

b|-5-3------------|---|

g|-----4----------|-5-|

D|-------5--------|-7-|

A|---------7-7-7--|-7-|

E|----------------|-5-|

Questo sito utilizza i cookie