Lo artesanal

Per aggiungere un elenco personale è necessario effettuare il
o

Viejas Locas

Versione
studio
pubblicato da
iri
Tono
A-
A+
Scorrere
A -> La
Video
Accordi
Traduzione
	 
[Intro]
Dm Gm Dm Gm
e|-------5-|--6p5-----|-------5-|--6p5-----|---------------------|

b|-----6---|------6---|-----6---|------6---|---------------------|

g|---7-----|--------7-|---7-----|-------7--|-12/10-10/9-9/7-7/5--|

D|---------|----------|---------|----------|---------------------|

A|-5-------|-5--------|-5-------|-5--------|---------------------|

E|---------|----------|---------|----------|---------------------|

[Riff]
Dm Gm
e|--------------------------| |--------------------|

b|----------------------6---| |--------------------|

g|-5-h(7)--5h(7)--5h(7)---7-| |-12/10-10/9-9/7-7/5-|

D|--------------------------|x2 |--------------------| x2

A|--------------------------| |--------------------|

E|--------------------------| |--------------------|

Dm Gm
e|--------------------------| |--------------------|

b|----------------------6---| |--------------------|

g|-5-h(7)--5h(7)--5h(7)---7-| |-12/10-10/9-9/7-7/5-|

D|--------------------------|x2 |--------------------| x2

A|--------------------------| |--------------------|

E|--------------------------| |--------------------|

[Versetto]
Dm
A veces pienso que esa gente tan cool
Gm
no tiene chispa para conquistar
Dm
si sus monedas lo pueden comprar
Gm
ellos se olvidan de lo artesanal.
[Coro]
Dm Gm
Se olvidan de lo artesanal
Dm
ello se van a olvidan
Gm
de lo artesanal
Dm
ellos se van a olvidar
Gm
de lo artesanal.
[Versetto]
Dm
Hoy vino es chico del chalet marrón
Gm
tenia unos pesos y quería comprar
Dm
algunas drogas para el sábado
Gm
y lo zarpaban una vez mas
[Coro]
Dm Gm
Se olvidaba de lo artesanal
Dm
ellos se van a olvidar
Gm
de lo artesanal.
[Ponte]
F Gm
Pero su galera
Bb C
se moja cuando llueve
F C
y a su mujer
Bb Gm Dm
le hacen la fiesta en un hotel..
[Intro]
Dm Gm Dm Gm
e|--------|-----|-----|-6p5----|---------|-------------------|

b|--------|-----|-----|-----6--|------10-|-10h(11)p10--------|

g|------7-|---6-|---6-|------7-|---------|-------------10----|

D|----7---|-7---|-7---|--------|-7/12----|----------------12-|

A|-5------|-----|-----|--------|---------|-------------------|

E|--------|-----|-----|--------|---------|-------------------|

[Riff]
e|--------------------------| |--------------------|

b|----------------------6---| |--------------------|

g|-5-h(7)--5h(7)--5h(7)---7-| |-12/10-10/9-9/7-7/5-|

D|--------------------------|x2 |--------------------|x2

A|--------------------------| |--------------------|

E|--------------------------| |--------------------|

[Versetto]
Dm
Fui a visitarlo a la tumba ayer
Gm
lleve un paquete que lo iba a alegrar
Dm
cuando salió ganó y le fue muy bien
Gm
y se olvidó de todo lo demás
[Coro]
Dm Gm
Se olvidaba de lo artesanal
Dm
ellos se van a olvidar
Gm
de lo artesanal
[Versetto]
Dm
y se mandaban esas fiestas que
Gm
son todas ratas tomando champagne
Dm
pagan muy caro por una mujer
Gm
y luego rien de la sociedad
[Coro]
Dm Gm
y se rien de lo artesanal
Dm
ellos se van a olvidar ah aah ahaah
Gm
de lo artesanal
[Ponte]
F Gm
Pero su galera
Bb C
se moja cuando llueve
F C
y a su mujer
Bb Gm Dm
le hacen la fiesta en un hotel..
[Ponte]
........
[Outro]
[Dm - Gm]
Questo sito utilizza i cookie