Me gustas mucho

Per aggiungere un elenco personale è necessario effettuare il
o

Viejas Locas

Versione
studio
pubblicato da
iri
Tono
A-
A+
Scorrere
A -> La
Video
Accordi
Traduzione
	 
[Intro]
E
e|---------------------------|

B|---------------------------|

G|---------------------2-----|

D|-----------------------0---|

A|-2--2-4-2--2-2--2h4--------|

E|-0--0-0-0--0-0-------------|

[Versetto]
E
Nos conocimos bailando en un bar
E
tus piernas volaban las sabias llevar
E
a mi me gustaban, como las movías
E
y juntos nos fuimos a pernoctar.
[Coro]
A5
Es que me gustas mucho,
E5
me gustas mucho,
A5
me gustas mucho,
E5
me gustas mucho.
[Intro]
E
e|---------------------------|

B|---------------------------|

G|---------------------2-----|

D|-----------------------0---|

A|-2--2-4-2--2-2--2h4--------|

E|-0--0-0-0--0-0-------------|

[Versetto]
E5
Me gusta como te vestis y como andas
E
me gusta tu pelo, tu cuerpo
E
me gustaría poderte bañar
E
cambien secarte y volverte a enjuagar.
[Coro]
A5
porque me gustas mucho
E5
me gustas mucho,nena
A5
me gustas mucho
B5
sera que me gustas tanto debe ser que
E5
no puedo disimular, de veras, eaaa
[Solo]
A E B A G E
e|-------------------------------| |-------------------------------|

B|-------------------------------| |-------------------------------|

G|-------------------------------| |-------------------------------|

D|-----0-0h2-----0h2-0-----------|x2 |-----0-2h4----0h2-0------------|

A|-s2---------s2-------2-0-------| ---s2-------s2-------2-0--------|

E|-------------------------3b-0--| |--------------------------3b-0-|

A E B A G E
e|------------------------------| |------------------------------|

B|----3---3h5----5-3------------| |------3-3-5h7-----5-3---------|

G|-s4---4-----s4-----4-2-0-s4---|x2|---s4----------s4-----4-2-0---|

D|------------------------------| |----------------------------2-|

A|------------------------------| |------------------------------|

E|------------------------------| |------------------------------|


[Coro]
A
Me gustas mucho
E
me gustas mucho, nena
A
será que me gustas tanto, pero tanto
E
me gustas mucho, nena
B
y porque me gustas tanto debe ser que
E
nunca te voy a olvidar.
Questo sito utilizza i cookie