Perra

Per aggiungere un elenco personale è necessario effettuare il
o

Viejas Locas

Versione
studio
pubblicato da
iri
Tono
A-
A+
Scorrere
A -> La
Video
Accordi
Traduzione
	 
[Riff]
C#m C#m C#m7
e|-4-|-----------|-4-4-|-------|

b|-5-|-----------|-5-5-|-------|

g|-6-|-----------|-6-4-|-------|

D|-6-|-----------|-6-6-|-------|

A|-4-|-----2-----|-4-4-|-2-3-4-|

E|---|-2-4---4p2-|-----|-------|

C#m C#m C#m7
e|-4-|-----------|-4-4-|-------|

b|-5-|-----------|-5-5-|-------|

g|-6-|-----------|-6-4-|-------|

D|-6-|-----------|-6-6-|-------|

A|-4-|-----2-----|-4-4-|-2-3-4-|

E|---|-2-4---4p2-|-----|-------|

[Versetto]
C#m
Me dejaste en la ruina
C#m
no en la ruina material
C#m
ahora tengo un problema,
C#m
un problema mental.
[Coro]
C#m
Sos una Perra... Perra... Perra... Perra... Guauuuu
[Versetto]
C#m
Me tuviste tanto tiempo
C#m
pusiste dulce en mi boca,
C#m
yo me estaba prendiendo fuego
C#m
y vos no me ibas a apagar no!
[Coro]
C#m
Sos una Perra... Perra... Perra... Perra...
C#m
Sos una Perra... Perra... Perra... Perra...
[Ponte]
A B C#m
Siempre fuiste una gran Perra mi amor...
A B C#m
Siempre fuiste la más! ...Perra.
[Solo]
C#m
[Versetto]
C#m
Pusiste clavos a mis zapatos
C#m
no me dejabas ver el sol,
C#m
no me gusta que me grites, nena;
C#m
por qué no te buscás otro novio
[Coro]
C#m
si sos una Perra... Perra... Perra... Perra...
D#m
Perra... Perra... Perra... Perra...
C#m
si sos una Perra... Perra... Perra... Perra...
D#m
Perra... Perra... Perra... Perra...
C#m
si sos una Perra... Perra... Perra... Perra...
[Ponte]
A B C#m
Siempre fuiste una gran Perra mi amor
A B B B
Siempre fuiste la más
C#m
perra
[Solo]
C#m
e|--------------------------------------------------------|

B|-12---12------------------------------------------------|

G|-11b-----11ba-p9-11-9------------------9--11ba-p9----9--|

D|-----------------------11p9----9h10h11------------11----|

A|----------------------------11--------------------------|

E|--------------------------------------------------------|

C#m
e|-------------9----------|---------------------|

B|-----------9---12-------|---------------------|

G|-----9-11b--------11b-9-|-11-11p9----11-11-9--|

D|-s11--------------------|-11-11p9-11-11-11-9--|x3

A|------------------------|---------------------|

E|------------------------|---------------------|

C#m
e|-------------------------------------|

B|-------------------------------------|

G|-----------------9-------------------|

D|-11p9----9h10h11---11-11s9--9s8-8s7--|

A|------11-----------------------------|

E|-------------------------------------|

[Outro]
[C#m]
[Intro]
C#m
e|-4-----------|

B|-5-----------|

G|-6-----------|

D|-6-----------|

A|-4-----2---2-|

E|---2-4---4---|

Questo sito utilizza i cookie