Canción para Naufragios

Para añadir a una lista personal debes
ó

Patricio Rey y sus Redonditos de Ricota

Versión
estudio
publicado por
iri
Tono
A-
A+
Deslizar
A -> La
Video
Acordes
	 
[Riff]
e|-8-8--6-6--4-4------|-8-8--6-6--4-4------|-----------4-4-|

b|----------------6-6-|----------------6-6-|-2-2--4-6--4-4-|

g|--------------------|--------------------|---------------|

D|--------------------|--------------------|---------------|x2

A|--------------------|--------------------|---------------|

E|--------------------|--------------------|---------------|

[Intro]
[Fm - A#m]x2
[Estrofa]
Fm Bbm7
Es tan chiflado y obnubilado que puede ser,
Fm Bbm7
Tan caprichoso y novedoso que puede ser

Fm Bbm7
Bombas de aquí para allá,
Fm Bbm7
Bombas de aquí para allá.

Fm Bbm7
Ya no estás solo, estamos todos en naufragar,
Fm Bbm7
Son 6 minutos y nuestra mami va a contestar.

Fm Bbm7
Mami elimina el error
Fm Bbm7
de que vos sos capaz.
[Tablatura]
e|-----------------------|-3-3-3-3-3-3-|

b|-----------------------|-------------|

g|-----------------------|-------------|

D|-----------------------|-------------|

A|-------3-------3---3-2-|-------------|

E|-1-3-4---1-3-4---4-----|-------------|

e|-----------------------|--------------------|

b|-----------------------|-6-6--4-4--3-3--0-0-|

g|-----------------------|--------------------|

D|-----------------------|--------------------|x2

A|-------3-------3-----5-|--------------------|

E|-1-3-4---1-3-4---4-3---|--------------------|

[Puente]
Fm - Bbm7
[Estribillo]
Fm Bbm7
Es tan chiflado y obnubilado que puede ser,
Fm Bbm7
Tan caprichoso y novedoso que puede ser

Fm Bbm7
Rayos de aquí para allá,
Fm Bbm7
que linda calma dan.
[Tablatura]
e|-----------------------|-3-3-3-3-3-3-|

b|-----------------------|-------------|

g|-----------------------|-------------|

D|-----------------------|-------------|

A|-------3-------3---3-2-|-------------|

E|-1-3-4---1-3-4---4-----|-------------|

e|-----------------------|

b|-----------------------|

g|-----------------------|

D|-----------------------|

A|-------3-------3-----5-|

E|-1-3-4---1-3-4---4-3---|

[Puente]
[Tablatura]
e|-----------------------|-3-3-3-3-3-3-|

b|-----------------------|-------------|

g|-----------------------|-------------|

D|-----------------------|-------------|

A|-------3-------3---3-2-|-------------|

E|-1-3-4---1-3-4---4-----|-------------|

e|-----------------------|--------------------|

b|-----------------------|-6-6--4-4--3-3--0-0-|

g|-----------------------|--------------------|

D|-----------------------|--------------------|x2

A|-------3-------3-----5-|--------------------|

E|-1-3-4---1-3-4---4-3---|--------------------|

[Estrofa]
Fm Bbm7
Ya no estás solo, estamos todos en naufragar,
Fm Bbm7
Son 6 minutos y nuestra mami va a contestar.
Fm Bbm7
Mami elimina el error
Fm Bbm7
de que vos sos capaz.
[Tablatura]
e|-----------------------|-3-3-3-3-3-3-|

b|-----------------------|-------------|

g|-----------------------|-------------|

D|-----------------------|-------------|

A|-------3-------3---3-2-|-------------|

E|-1-3-4---1-3-4---4-----|-------------|

e|-----------------------|--------------------|

b|-----------------------|-6-6--4-4--3-3--0-0-|

g|-----------------------|--------------------|

D|-----------------------|--------------------|x2

A|-------3-------3-----5-|--------------------|

E|-1-3-4---1-3-4---4-3---|--------------------|

e|------------------------------------------|

b|-55-33-22---55-33-22---55-33-22----3~-***-|

g|---------3----------3----------3---4~-***-|

D|---------------------------------4--------|

A|------------------------------------------|

E|------------------------------------------|

Este sitio usa cookies