Tarea fina

+ nueva lista

Patricio Rey y sus Redonditos de Ricota

Versión
estudio
publicado por
iri
Tono
A-
A+
Deslizar
A -> La
Video
Acordes
	 
[Intro]
e|---------------------------------------------------------|--------------------------------|

b|---------------------------------------------------------|--------------------------------|

g|--------0---------------------------0----------0---------|--------------------------------|

D|------2---(2)~------2-0-----------2---(2)~--------0/-(2)-|--------------------------------|

A|--3-3-----------3-3-----(3)~--3-3----------3-3-----------|---------0-5-(7)--------0-5-(7)-|

E|---------------------------------------------------------|--5-5--8----------5-5--8--------|

e|-------------------|----------------|

b|-------------------|-------8--8--8--|

g|-------------------|-(7)---7--7--7--|

D|-------------5-2-/-|-(5)---5--5--5--|

A|----------0--------|----------------|

E|---5-5--8----------|----------------|

[Estrofa]
C
Quemando la turbina te escapas
C
vas a volver a herirme otra vez?
Am
en tu ternura esta acechándome
Am
una buena traición de mujer
Am
que hecha hielo y brasas en mi corazón
G
(fumando en la oscuridad)
[Estrofa]
C
Sobrio no te puedo ni hablar
C
estoy perdido sin mi estupidez
Am
un auto guapo va a venir por vos
Am
y nada va a cambiar
Am
vas a vivir en el delta en un lanchón
G
buscando de que reír
[Estribillo]
Bb F
Con las piernas más bonitas
C Bb
las más lindas piernas que vi
G F
y un juego rico de amores
C Bb G
caida libre para dos
[Solo]
C A C A
e|-3-0-3-(0)-|-----------|-3-0-(3)-0-3-(0)-|-----------|

B|-----------|-5-3-5-----|-----------------|-5-3-5-----|

G|-----------|-------(2)-|-----------------|-------(2)-|

D|-----------|-----------|-----------------|-----------|

A|-----------|-----------|-----------------|-----------|

E|-----------|-----------|-----------------|-----------|

G F
e|---------------------------|-----------------------------|

B|---------------------------|-----------------------------|

G|---------------------------|-----------------------------|

D|-(5)-5-3--2-2-0------------|------------(3)--------------|

A|----------------3-----3-5--|-(3)---3--5------------------|

E|------------------3-5------|-----------------------------|

[Estrofa]
C
Le das la copa al fin, vencedor
C
tarea fina, perdida en mi soledad
Am
no se si no me gusta mas que el rock
Am
(nunca lo vi llorar)
Am
si no va sin freno no anda bien
G
ni me encadena a su show
[Estribillo]
Bb F
Con las piernas más bonitas
C Bb
las más lindas piernas que vi
G F
y un juego rico de amores
C Bb G
caida libre para dos
[Outro]
Am - F

Am - F

Am - F

G - G - G - G