Versión
estudio
publicado por
rafah
Tono
A-
A+
Deslizar
A -> La
Video
Acordes
	 
[Tablatura]
Punteo 1

e|-5-3-5-3--3-1-0--

Punteo 2

A|-------3-0-

E|-0-3-5-

Punteo 3

A|-3-2-0-

[Intro]
Am F G Punteo 1 E Punteo 2 X4
[Solo]
Am F E Am X4

e|-----------------------------------------------------------

B|-1-0-------------------------------------------------------

G|-----2-0-------------------------8-9_10---9----------------

D|---------3----2---------------7-9-------------7---------3-2

A|-----------------------7-9-10------------------------------

E|-------------------5---------------------------------------

[Estrofa]
Am F E
¿Era todo? Pregunté.
Am Punteo 2
Soy un iluso.
Am F E
No nos dimos nada más,
Am Punteo 3
sólo un buen gesto.
[Medio]
Am F G Punteo 1 E Punteo 2 X2
[Solo]
Am F E Am X4
e|-----------------------------------------------------------------

B|-1-0---------------------------------8-10--10-8---8-10-----------

G|-----2-0----------------------7-9-10------------9-------9-7----9-

D|---------3----2--------7-9-10------------------------------10----

A|-----------------------------------------------------------------

E|-------------------5---------------------------------------------

e|-----------------------------------------------------------|-----

B|-----------------------------------------------------------|-----

G|-----------------------------9-7----9-7----9-7-------------|-----

D|------7-10--7-------7-10---------10-----10-----10-9-10-9---|-----

A|-7-10----------7-10-------8------------------------------7-|-7-10

E|-----------------------------------------------------------|-----

e|-----------------7-8-10-8--7--8--7------7-8-7-----------|

B|----------8-10----------------------10--------8--5_8-10-|

G|------7-9-----------------------------------------------|

D|-7-10---------------------------------------------------|

A|--------------------------------------------------------|

E|--------------------------------------------------------|

[Estrofa]
Am F E
Mordí el anzuelo una vez más.
Am Punteo 2
Siempre un iluso.
Am F E
Nuestra estrella se agotó
Am Punteo 3
Y era mi lujo.
[Instrumental]
Am F G E X2
[Solo]
Am F E Am X4

e|-----------------------------------------------------------

B|-1-0-------------------------------------------------------

G|-----2-0-------------------------8-9_10---9----------------

D|---------3----2---------------7-9-------------7---------3-2

A|-----------------------7-9-10------------------------------

E|-------------------5---------------------------------------

[Estrofa]
Am F E
Ella fue por esa vez
Am Punteo 2
mi héroe vivo, bah,
Am F E
fue mi único héroe
Am Punteo 2
en este lío.
[Estrofa]
Am F E
La más linda del amor,
Am Punteo 2
que un tonto ha visto soñar.
Am F E Am
Metió, metió mi rocanrol bajo este pulso.
Este sitio usa cookies