Versión
estudio
publicado por
iri
Tono
A-
A+
Deslizar
A -> La
Video
Acordes
	 
[Riff]
Dm x2 A7 x2 Em7(b5)x2 Dm x2

e|---------------1-|----------------|--------------3-|-------------1-|

B|---------------3-|--------------2-|--------------2-|-------------3-|

G|---------------2-|----------------|--------------3-|-------------2-|

D|-0-0-0-0-0-0-----|-2-2-2-2-2-2--2-|-2-2-2-2-2-2--2-|0-0-0-0-0-0-0--|

A|-----------------|----------------|----------------|---------------|

E|-----------------|----------------|----------------|---------------|

[Estrofa]
Dm A7
En este film, velado en blanca noche
Em7(b5) REm
El hijo tenaz de tu enemigo
Dm A7
El muy verdugo cena distinguido
Em7(b5) Dm C5
Una noche de cristal que se hace añicos
[Estribillo]
F5 C5
No lo soñé eeeeeee!
Bb5 D
se enderezó y brindó a tu suerte
F5 C5
No lo soñé eeeeeee!
Bb5 D
y se ofreció mejor que nunca
Bb5 F5
no mires por favor, y no prendas la luz
G5 A5
la imagen te desfiguró.
[Estrofa]
Dm A7
Este film da una imagen exquisita
Em7(b5) Dm
Esos chicos son como bombas pequeñitas
Dm A7
el peor camino a la cueva del perico
Em7(b5) Dm C5
para tipos que no duermen por la noche
[Estribillo]
F5 C5
No lo soñé eeeeeee!
Bb5 D
se enderezó y brindó a tu suerte
F5 C5
No lo soñé eeeeeee!
Bb5 D
y se ofreció mejor que nunca
Bb5 F5
no mires por favor, y no prendas la luz
G5 A5
la imagen te desfiguró.
[Solo]
e|-----------5-5-5-3L-5L-3L--1-0---|---------------0-(-3-1-0-)x6-|

B|-----5-6-8---------------------3-|-3-3-3-3-2-2-3---------------|

G|---7-----------------------------|-----------------------------|

D|-7-------------------------------|-----------------------------|

A|---------------------------------|-----------------------------|

E|---------------------------------|-----------------------------|

e|-------0-1-0---------|----|-------------------------|------------------|

B|-3-2-3-------3-2-3---|----|-------------------------|------------------|

G|-------------------x2|-10-|-12-10-9-10-9------------|------------------|

D|---------------------|----|-------------10-10-12-10-|10-12-10-12-12-12-|

A|---------------------|----|-------------------------|------------------|

E|---------------------|----|-------------------------|------------------|

e|--------------10--------10-12(13)/12-|--13L-15L-13L--15-13-12-13-12--|

B|-----------10----13(15)--------------|-------------------------------|

G|-10-12(14)---------------------------|-------------------------------|

D|-------------------------------------|-------------------------------|

A|-------------------------------------|-------------------------------|

E|-------------------------------------|-------------------------------|

e|---------------------------------------------------10-------------------|

B|-13-13-15-13--------------10--------------------10----13----------------|

G|-----------------10-12-13----12-10----10-12(14)----------12(14)/12L-10L-|

D|--------------12-------------------12-----------------------------------|

A|------------------------------------------------------------------------|

E|------------------------------------------------------------------------|

e|-------------(-15(17)-15(17)-15(17)/15-13-)x2-15-13----13-(-20(22)x3-20-|

B|----------------------------------------------------15------------------|

G|-------10---------------------------------------------------------------|

D|-12-10----12------------------------------------------------------------|

A|------------------------------------------------------------------------|

E|------------------------------------------------------------------------|

[Estrofa]
Dm A7
El montaje final es muy curioso
Em7(b5) Dm
es en verdad realmente entretenido
Dm A7
Vas en la oscura multitud desprevenido
Em7(b5) Dm
tiranizando a los que te han querido
[Estribillo]
F5 C5
No lo soñé eeeeeee!
Bb5 D
se enderezó y brindó a tu suerte
F5 C5
No lo soñé eeeeeee!
Bb5 D
y se ofreció mejor que nunca
F5 C5
No lo soñé eeeeeeee!
Bb5 D
ibas corriendo a la deriva
F5 C5
No lo soñé eeeeeeee!
Bb5 D
los ojos ciegos bien abiertos
Bb5 F5
No mires por favor, y no prendas la luz
G5 A5-A#5 x4
La imagen te desfiguró
[Instrumental]
Gm - Dm - A7 - Dm
Este sitio usa cookies