Versión
estudio
publicado por
rafah
Tono
A-
A+
Deslizar
A -> La
Video
Acordes
	 
[Intro]
1-------------------------

2---------------3-1-3-1-1-

3-2-2/2/2/2/2/2-----------

4-------------------------

5-------------------------

6-------------------------

[Estrofa]
E
si esta cárcel sigue así
A B
todo preso es político uoooooo
E
reos de la sociedad
A B
si tu preso es político uoooooooo
[Estrofa]
C#m B
el ascensor ya sube
C#m B
tu confesión ya sube
[Estrofa]
E
20 años pagó ayer,
A B
por 3 putos políticos uouooooooo
[Instrumental]
G F# B D A B
[Tablatura]
intro 2

1]-------------------------------------------------------------

2]-------------------------------------------------------------

3]-------------------------------------------------------------

4]----------------------2-4------------------------------------

5]---------2-4--0-0-3-4----------------------------------------

6]-0-0-3-4-----------------------------------------------------

[Estrofa]
B Bm7
detenganlos
B Bm7
detenganlos
D A B
intro 2
detenganme
intro 2
detengalos
Este sitio usa cookies