Civilización

Para añadir a una lista personal debes
ó

Los Piojos

Versión
estudio
publicado por
iri
Tono
A-
A+
Deslizar
A -> La
Video
Acordes
	 
[Riff]
Am Dm C G
e|--5------5-----5------5-----8---------8-----7-------8-7---|

B|----5--5---5-5---6--6---6-6----8----8---8-8---8---8-------|

G|------5-----5------7-----7---------9-----9-------7--------|

D|--7--7---7-----7--7---7-----10---10---10----9---9---7-7---|

A|----------------------------------------------------------|

E|----------------------------------------------------------|

[Intro]
[Am - Dm - C - G]
[Estrofa]
Am Dm
Hay algo que está sonando, seguro que ya lo oías
C G
la tierra está vibrando, con distinta melodía,
Am Dm
Ni dioses locos de furia, ni demonios vengativos
C G
ni naves extraterrestres , ni algún cometa perdido.
Am Dm
La historia es mucho más clara, y tiene también sentido
C G
la tierra se está quitando, de encima al peor enemigo.
Am Dm
Vienen los cuatros jinetes, cabalgando vienen digo
C G
agua, tierra, fuego y aire, vienen de tu propio ombligo.
[Estribillo]
Am Dm
Oh oh oh oh
C G
cosas de la civilización.
Am Dm
Oh oh oh oh,
C G
cosas de la civilización.
[Puente]
[Am - Dm - C - G]
[Estrofa]
Am Dm
Que todo ya está montado, que millones de despidos
C G
el camino es complicado, quizá como nunca ha sido.
Am Dm
Anoche soñé con Manu, y esta melodía cantaba
C G
alguien encendía un asado, alguien de lejos llegaba.
[Pre-Estribillo]
Am Dm
Y si viene un río gris, que separa al mundo en dos
C G
quisiera quedar del mismo lado nena que vos
Am Dm
Y si viene un río gris, que separa al mundo en dos
C G
quisiera quedar del mismo lado nena que vos
[Estribillo]
Am Dm
Oh oh oh oh
C G
cosas de la civilización,
Am Dm
Oh oh oh oh
C G
cosas de la civilización.
[Puente]
Am
Un nuevo desierto, un nuevo granizo,
Dm C G
saben quien lo hizo anda por acá.
Am
Dios perdona, el hombre a veces,
Dm C G
la naturaleza nunca, anda por acá.
Am
No te olvides del mamut, que no terminó el vermouth.
Dm C
No te olvides del mamut, que no terminó el vermouth.
G
por allá
[Pre-Estribillo]
Am Dm
Y si viene un río gris, que separa al mundo en dos
C G
quisiera quedar del mismo lado nena que vos
Am Dm
Y si viene un río gris, que separa al mundo en dos
C G
quisiera quedar del mismo lado nena que vos
[Estribillo]
Am Dm
Oh oh oh oh
C G
cosas de la civilización
Am Dm
Oh oh oh oh
C G
cosas de la civilización.
[Puente]
Am Dm C G
Tararatarata
Am Dm C G
Tararatarata
Am Dm C G
Tararatarata
Am Dm C G
Tararatarata
[Riff]
Am Dm C G
e|--12-----12--------12-------------|

B|----13-----13--------13----10s12--|

G|------14-----12s14-----12--10s12--|

D|----------------------------------|

A|----------------------------------|

E|----------------------------------|

Este sitio usa cookies