Esquina Libertad

Para añadir a una lista personal debes
ó

Los Piojos

Versión
estudio
publicado por
rafah
Tono
A-
A+
Deslizar
A -> La
Video
Acordes
	 
[Intro]
(E G E G)
E--------------------------------------------------------------------

A--------------------------------------------------------------------

D--------------------------------------------------------------------

G-------------------------9-----9------------9-----------------------

B---12-------------12--9-----9-----9--10--9-----12--11--12-----------

e-------12--10--9-------------------------------------------9p12--10-



E-----------------------------------------

A-----------------------------------------

D-----------------------------------------

G-------------9-----9------------9--------

B------12--9-----9-----9--10--9-----------

e---9-------------------------------------

[Estrofa]
E G E G
Esquina libertad
E G E G
envido y truco del tiempo
E G E G
a usted le toca jugar
E G E G
no haga parda y corte el viento.
[Estrofa]
E G E G
Rige tu luna para mi tres
E G E G
sangre en la copa y adentro
E G E G
un rocandombe tenes
E G E G
Palazzo rompe lamento.
[Estribillo]
C A E G E G
Che, Che
C A E G E G
Che, Che
[Estrofa]
E G E G
Nueva revolución
E G E G
nueva sangre, nueva mente
E G E G
lo que se pierde, ya se perdió
E G E G
y no me seques la frente
[Estrofa]
E G E G
Guevara Guevara Guevara Guevara Guevara en mi remera de Dior
E G E G
el che era argentino y murió en Vietnam
E G E G
yo le dije, déjatela
E G E G
la chiva te hace guerrero.
[Estribillo]
C A E G E G
Che, Che
C A E G E G
Che, Che
[Puente]
Bm D
Larga calle de Libertad
Bm D
tantas curvas te siento
C Bm
vi encerrando un ombú gritar
C D
el ombú que da el tiempo.
Bm D
No hay carteles para saber
Bm D
cual será tu sendero
C Bm
como la arena debe ser
C D
como el aire de enero.
[Instrumental]
E G E G x4
[Estrofa]
E G E G
Esquina del espiral
E G
no me esperes no me esperes
E G
no me esperas ya vendrás
E G E G
nunca del todo se puede escapar, aúh !...
E G E G
mientras la sombra te siga detrás
[Estribillo]
C A E G E G
Che, Che
C A E G E G
Che, Che
[Puente]
Bm D
Larga calle de Libertad
Bm D
tantas curvas te siento
C Bm
como la arena debe ser
C D
como el aire de enero.
[Instrumental]
E G E G x4
[Estribillo]
C A E G E G
Che, Che
C A E G E G
Che, Che
C A
Este sitio usa cookies