Los Mocosos

Para añadir a una lista personal debes
ó

Los Piojos

Versión
estudio
publicado por
iri
Tono
A-
A+
Deslizar
A -> La
Video
Acordes
	 
[Intro]
C Eb Bb C
e|------------------|-----------------------|-------------|----------------------|

B|------------------|-----------------------|-------------|----------------------|

G|------------------|--------3--------------|-------------|----------------------|

D|--------5---------|----5------------5h6p5-|------3------|-----------5---5------|

A|------7------7----|--6---6-------6--------|----5----5---|------7-----------7-7-|

E|-6/8------------8-|-----------------------|--6--------6-|--6/8----8------------|

C Eb Bb C
e|------------------|-----------------------|-------------|----------------------|

B|------------------|-----------------------|-------------|----------------------|

G|------------------|--------3--------------|-------------|----------------------|

D|--------5---------|----5------------5-----|------3------|------------5--5------|

A|------7------7----|--6---6-------6-----6--|----5----5---|------7-----------7-7-|

E|-6/8------------8-|-----------------------|--6--------6-|--6/8----8------------|

[Intro]
[C | Eb | Bb | C ]x2


[Estrofa]
C
En la tierra del ruido
Db Bb
y la prostitución
C
Y las calles mugrientas.
C
Con mercados hambrientos
Db Bb
que perforan la estación
C
como largas culebras .
C
Los mocosos se trepan
Db Bb
y se van hacia el sol
C
en los trenes de piedra.
[Riff]
C Eb Bb C
e|-----------------|--------------------------|-----------------------------|

B|--------6p5------|----------------9-8-6-----|-------4p3-----------6-5-----|

G|-5---5-------7-5-|-5-5-5/8---8------------8-|-3---3-----5-3-3-3/5-----7-5-|

D|-----------------|--------------------------|-----------------------------| x2

A|-----------------|--------------------------|-----------------------------|

E|-----------------|--------------------------|-----------------------------|

[Estrofa]
C
En la tierra del vino
Eb Bb
Y la drogadicción
C
Y los hijos negados


C Eb Bb
Policías mendigan al peor infractor
C
Y le besan la mano


C
Los mocosos se trepan
Eb Bb
y se van hacia el sol
C
En bolsitas de Nylon


C
Los mocosos se trepan
Eb Bb
y se van hacia el sol
C
En bolsitas de llanto.
[Riff]
C Eb Bb C
e|-----------------|--------------------------|-----------------------------|

B|--------6p5------|----------------9-8-6-----|-------4p3-----------6-5-----|

G|-5---5-------7-5-|-5-5-5/8---8------------8-|-3---3-----5-3-3-3/5-----7-5-|

D|-----------------|--------------------------|-----------------------------|

A|-----------------|--------------------------|-----------------------------|

E|-----------------|--------------------------|-----------------------------|

[Estribillo]
Bb F
Na na no
Eb
No me dejes olvidar esta canción.
Bb F
Na na no
Eb [Eb - D - C]
No me dejes olvidarla
[Intro]
C Eb Bb C
e|------------------|-----------------------|-------------|----------------------|

B|------------------|-----------------------|-------------|----------------------|

G|------------------|--------3--------------|-------------|----------------------|

D|--------5---------|----5------------5h6p5-|------3------|-----------5---5------|

A|------7------7----|--6---6-------6--------|----5----5---|------7-----------7-7-|

E|-6/8------------8-|-----------------------|--6--------6-|--6/8----8------------|

C Eb Bb C
e|------------------|-----------------------|-------------|----------------------|

B|------------------|-----------------------|-------------|----------------------|

G|------------------|--------3--------------|-------------|----------------------|

D|--------5---------|----5------------5-----|------3------|------------5--5------|

A|------7------7----|--6---6-------6-----6--|----5----5---|------7-----------7-7-|

E|-6/8------------8-|-----------------------|--6--------6-|--6/8----8------------|

[Estrofa]
C
El pequeño Big Beng
Eb Bb
Cuenta piedras rojizas
C
Como gotas de sangre.


C
Me pregunto ¿por qué?
Eb Bb
esa gente no ve
C
Detrás de los ventanales.


C
Los mocosos se trepan
Eb Bb
y se van hacia el sol
C
A buscar a sus madres.


C
Los mocosos se trepan
Eb Bb
y se van hacia el sol
C
A buscar a sus... mamás
[Solo]
[C | Eb | Bb | C]x4
[Puente]
C Eb Bb
Creíste estar
C
En su lugar
C Eb Bb
Creíste estar
C
En su lugar
C Eb Bb
Creíste estar
C
En su lugar
C Eb Bb
Vas a estar
C
en su lugar
[Estrofa]
C
En la tierra del ruido
Db Bb
y la prostitución
C
Y las calles mugrientas
C
Con mercados hambrientos
Db Bb
que perforan la estación
C
como largas culebras
C
Los mocosos se trepan
Db Bb
y se van hacia el sol
C
en los trenes de piedra.


C
Los mocosos se trepan
Db Bb
y se van hacia el sol
C
en los trenes de piedra.
[Riff]
C Eb Bb C
e|-----------------|--------------------------|-----------------------------|

B|--------6p5------|----------------9-8-6-----|-------4p3-----------6-5-----|

G|-5---5-------7-5-|-5-5-5/8---8------------8-|-3---3-----5-3-3-3/5-----7-5-|

D|-----------------|--------------------------|-----------------------------|

A|-----------------|--------------------------|-----------------------------|

E|-----------------|--------------------------|-----------------------------|

[Outro]
Bb F
Na na no
Eb
No me dejes olvidar esta canción.
Bb F
Na na no
Eb
No me dejes olvidarla


Bb F
Na na no
Eb
No me dejes olvidar esta canción.
Bb F
Na na no
Eb
No me dejes olvidarla

Bb F Eb
Uuuh, Na na na na na na na.
Bb F Eb
Uuuh, Na na na na na na na.
Bb F Eb
Uuuh, Na na na na na na na.
Bb F Eb
Uuuh, Na na na na na na na.
[Puente]
[Eb D C]
Este sitio usa cookies