Pacífico

Para añadir a una lista personal debes
ó

Los Piojos

Versión
estudio
publicado por
iri
Tono
A-
A+
Deslizar
A -> La
Video
Acordes
	 
Tocar solamente el bajo en las primeras lineas.
[Estrofa]
E
Ahora que estoy vació
F#
Ahora que no hay canción
A E
Toda la luna cabe en mí
E
Ahora que soy silbido
F#
De alguien que sale a andar
A E
Veo otro cielo alrededor
[Medio]
C#m
Todos esos deseos
G#m
De noche fría de alcohol
A E
Hoy te los quiero regalar
C#m
El agua me salpica
G#m
El fuego es realidad
A F#m A
Me gustaba tanto tu vooooooooooz.
[Riff]
E F#

e|-------------------|------------------|--------------------|------------------|

b|-------------------|------------------|--------------------|------------------|

g|-------------------|------------------|--------------------|------------------|

D|------9-9-7-7-6----|---9-9--7-7-6-6---|----11-11-9-9-8-----|---11-11-9-9-8----|

A|-7--7------------7-|-7----------------|-7/9--------------9-|-9----------------|

E|-------------------|------------------|--------------------|------------------|

A E

e|------------------------|-------------------|-------------------|------------------|

b|------------------------|-------------------|-------------------|------------------|

g|------------------------|-------------------|-------------------|------------------|

D|------14-14-12-12-11----|----14-14-12-12-11-|------9-9-7-7-6----|---9-9--7-7-6-6---|

A|-9/12----------------12-|-12----------------|-7--7------------7-|-7----------------|

E|------------------------|-------------------|-------------------|------------------|

[Estrofa]
E
Dejando que suceda
F#
Es más fácil así
A E
El cuerpo bien sabe flotar
E
Distintas las miradas
F#
Y tu contestación
A E
Muestra que inútil fue mi hablar
[Medio]
C#m
La mente esta vacía
G#m
El cuerpo quiere girar
A D A
Y en la pupila aquel doloooooooor
[Estribillo]
E
Voy a llevarte en mi
G D
Y ahora se muy bien, que me llevaras
A G
Hasta donde estés, a donde vayas
E G
Un tatuaje azul, en la voz azul.
[Riff]
E F#

e|-------------------|------------------|--------------------|------------------|

b|-------------------|------------------|--------------------|------------------|

g|-------------------|------------------|--------------------|------------------|

D|------9-9-7-7-6----|---9-9--7-7-6-6---|----11-11-9-9-8-----|---11-11-9-9-8----|

A|-7--7------------7-|-7----------------|-7/9--------------9-|-9----------------|

E|-------------------|------------------|--------------------|------------------|

A E

e|------------------------|-------------------|-------------------|------------------|

b|------------------------|-------------------|-------------------|------------------|

g|------------------------|-------------------|-------------------|------------------|

D|------14-14-12-12-11----|----14-14-12-12-11-|------9-9-7-7-6----|---9-9--7-7-6-6---|

A|-9/12----------------12-|-12----------------|-7--7------------7-|-7----------------|

E|------------------------|-------------------|-------------------|------------------|

[Post-Estribillo]
E F# A E
Oh oh oh, Oh oh oh
[Medio]
C#m
Algo tiembla al oído
G#m
Sobra de un susurro sin voz
A D A
La última oportunidad oh
[Estribillo]
E
Voy a llevarte en mi
G D
Y ahora se muy bien, que me llevaras
A G
Hasta donde estés, a donde vayas
E G
Un tatuaje azul, en la voz azul.
[Outro]
A E G D
Este sitio usa cookies