Bicho de ciudad

Para añadir a una lista personal debes
ó

Los Piojos

Versión
estudio
publicado por
iri
Tono
A-
A+
Deslizar
A -> La
Video
Acordes
	 
[Riff]
D G D G
e|--------------|----2-----|----------------|--------|

b|---------(3)--|-3------3-|----------3-----|--------|

g|---------(4)--|----------|--------4---4---|--------|

D|-----0--------|----------|-----0----------|-4-2h4--|

A|-0-2----------|----------|-0-2------------|--------|

E|--------------|----------|----------------|--------|

D G D D
e|----------------|-7--7-----5--|---10--10-10-10 |--------|

b|--------------3-|-7---7---5-5h|--10--10-10--10-|--------|

g|----------2h4---|-------------|----------------|--------|

D|-----0--4-------|-------------|----------------|------0-|

A|-0-2------------|-------------|----------------|-0--2---|

E|----------------|-------------|----------------|--------|

[Intro]
[D -G] X 4
[Estrofa]
D G D G
¿Qué voy a hacer con tanto cielo para mí?
D G D G
Voy a volar, yo soy un bicho de ciudad.
D G D G
¿Qué voy a hacer, cuál es el camino a seguir?
D G D G
Voy a soñar con ese beso al regresar.
D G D G
Cierro los ojos, no imagino algo mejor
D G D G G
respiro hondo y tomo el vino...
[Estribillo]
Bm G D A
Y no te asustes si me río como un loco
Em G D A
es necesario que a veces sea así
Bm G D A
será la vida que siempre nos pega un poco
Em G D A
nos encandila con lo que está por venir.
[Puente]
[A - G - Bm - F#m - D - A] X 2
A G
Aaaaaaaaaaahhhh
[Riff]
D G D G
e|----------------|-5--5---------|----------------|

b|--------------3-|----5^6--3--3-|----------------|

g|----------2h4---|----------4--4|-2--------------|

d|-----0--4-------|--------------|---4-2h4--------|

a|-0-2------------|--------------|----------------|

E|----------------|--------------|----------------|

[Estrofa]
D G D G
¿Qué voy a hacer con tanto cielo para mí?
D G D G
voy a volar, yo soy un bicho de ciudad.
D G D G
Bajo un árbol me refugio del calor
D G D G
en el silencio, escucho el río.
[Estribillo]
Bm G D A
Y no te asustes si me río como un loco
Em G D A
es necesario que mañana sea así
Bm G D A
será la vida que siempre nos pega un poco
Em G D A
nos encandila con lo que está por venir.
[Puente]
[A - G - Bm - F#m - D - A] X 2
A - G
[Post-Estribillo]
D
Tengo algo mal pensado,
G
little baby en el colchón
D
lloviznando de repente,
G
¿dónde está mi amor?
D G
Llegué de lejos yo te quiero enloquecer sé de
D
alguien que te está buscando
G
sed hay en sus manos.
[Estrofa]
D G
Es perfecto el aire,
D G
la cumbre bajo el sol
D G
de lo que quede de mí,
D G
te llevo un poco.
[Estribillo]
Bm G D A
Y no te asustes si me río como un loco
Bm G D A
es necesario que mañana sea así
Bm G D A
será la vida que siempre nos pega un poco
Bm G D A
nos encandila con lo que está por venir.
[Puente]
[A - G - Bm - F#m - D - A] X 2
A G
Aaaaaaaaahhhh
D
Este sitio usa cookies