Te Diría

Para añadir a una lista personal debes
ó

Los Piojos

Versión
estudio
publicado por
iri
Tono
A-
A+
Deslizar
A -> La
Video
Acordes
	 
[Intro]
[G | G11]x4
[Estrofa]
G F
Si dijéramos que el día es la careta
G F
si dijéramos que en la noche está el tango
G F
si dijéramos que ya no tenes miedos
G F
cúando lo único que amás es el aspanto.
[Estribillo]
F
Te diría
F C C7
que estás muerta
C C7 C C7
mi amor
C C7 C C7 G Gsus G
por eso te estoy amando.
[Intro]
[G | G11]x4
[Estrofa]
G F
Si dijéramos que el sol cae sin ganas
G F
en el cielo cuando el cielo está escapando
G F
y la soledad es mas sola en la cama
G F
y la Luna es una lágrima sin llanto.
[Estribillo]
F
Te diría
F C C7
que estás muerta
C C7 C C7
Mi amor
C C7 C C7 G Gsus G
por eso te estoy amando.
[Intro]
[G | G11]x4
[Estrofa]
G F
Si dijéramos que nunca hubo tan bella
G F
una noche como esta tuya y mía.
G F
Si dijéramos que bajo las estrellas
G F
tu mirada y mi mirada están perdidas.
[Estribillo]
F
Te diría
F C C7
que estoy muerto
C C7 C C7
Mi amor
C C7 C C7 G Gsus G
eso es lo que te diría.
[Puente]
C C7 C C7
Na, na, na,
C C7 C G
Yo te amaré
F
hoy.
[Solo]
e|-------------------------------------------------------------|

b|-------------------------------------------------------------|

g|-------------------------------------------------------------|

D|-------------------------------------------------------------|

A|-6-8-9-8--6-8-9-8--6-8-6-----6-8-9-8--6-8-9-8--6-8-6-9-------|

E|-------------------------8-----------------------------------|

e|-------------------------------------------------------------|

b|-------------------------------------------------------------|

g|-------------------------------------------------------------|

D|-------------------------------------------------------------|

A|-6-8-9-8--6-8-9-8--6-8-6-----6-8-9-8--6-8-9-8--6-8-6-9/12----|

E|-------------------------8-----------------------------------|

e|----------------------|------------------------|

b|-9-11-9-----9-11-9----|--8--10--8---x2---------|

g|-9-11-9-----9-11-9----|--8--10--8--------------|

D|----------------------|------------------------|

A|----------------------|------------------------|

E|----------------------|------------------------|

[Puente]
C C7 C
Ahora sola en la celda
C C7
en la celda sola
C C7 C
Ahora sola en la celda
C7
sola.
[Puente]
G G11
Na na na...
[Outro]
[F F F | G]