Todo Pasa

+ nueva lista

Los Piojos

Versión
estudio
publicado por
iri
Tono
A-
A+
Deslizar
A -> La
Video
Acordes
	 
[Tablatura]
e|--1--0--3--5--5--5--3--4/5-----|

b|-------------------------------|

g|-------------------------------|

D|--3--2--5--7--7--7--5--6/7-----|x2

A|-------------------------------|

E|-------------------------------|

e|-----1-----1--0----------0--0--------|

b|-------------------3-----------3--1--|

g|--2----2-----------------------------|

D|-------------------------------------|

A|-------------------1----1------------|

E|--1----1-----------------------------|

e|----1----1-0----------------|

b|--------------3--1----------|

g|--2--2---2-0--3--3----------|

D|----------------------------|x2

A|----------------------------|

E|----------------------------|

[Intro]
Fmaj7 C Bmaj7

Fmaj7 C Bmaj7

F C Bb C Bb

F C Bb C Bb

F C Bb C Bb

F C Bb Bb6 C

[Estrofa]
F C Bb
En la ciudad gris,
F C Bb
Bares y cafés
F C Bb
Tenes que olvidar,
F C Bb
Nena no podes
F C Bb
Era un escritor,
F C Bb
Se la daba de
F C Bb
Era un usador,
F C Bb
De tu buena fe
[Tablatura]
Fmaj7 C Bmaj7
e|--1--0--3--5--5--5--3--4--5--------|

b|-----------------------------------|

g|--2--0--2--5--5--5--3--3--5--------|

D|-----------------------------------|x2

A|-----------------------------------|

E|-----------------------------------|

[Estrofa]
Y justo pensé, (pensé por pensar)
F C Bb
Yo que estaba acá
F C Bb
Nena donde estés
F C Bb
Como? como estas?
[Estrofa]
F C Bb
Sexy overol,
F C Bb
En el restoran
F C Bb
Pero el no te espera
F C Bb
El no te espera y no olvidas
F C Bb
Y ves
F C Bb
Que esta tristeza no puede ser
F C Bb
Que algo mejor tiene que haber
F C Bb
Algo por donde salir a andar
[Estribillo]
F C Bb
Dale, dolores no llores
F C Bb
Dale, dolores no llores
F C Bb
Dale, dolores no llores
F C Bb
No...
F C Bb
Dale, do-lores no llores
F C Bb
Dale, do-lores no llores
F C Bb
Dale, do-lores no llores
F C Bb
No...
[Puente]
G#m G#m(A#) G#m(B) G#m(A#)
Servido
D#m
va tu amor
C#m C#m(D#) C#m C#m(D#)
Oha, oha, oha, Servido
D#m
va tu amor
G#m G#m(A#) G#m(B) G#m(A#)
Oha, oha, oha Servido
D#m
va tu amor
C#m C#m(D#) C#m C#m(D#)
Oha, oha, oha, Servido
F C Bb
va...
[Intro]
Fmaj7 C Bmaj7
e|--1--0--3--5--5--5--3--4/5-----|

b|-------------------------------|

g|-------------------------------|

D|--3--2--5--7--7--7--5--6/7-----|x2

A|-------------------------------|

E|-------------------------------|

[Puente]
Si viene y entra por esa puerta
Hay, yo me muero
Fantasma o no
Vos en el y el en vos
[Estrofa]
F C Bb
Y brillo loco en la bandeja están
F C Bb
Sus ojos negros
F C Bb
Pero ya basta! ya basta!
F C Bb
Sabemos que termino
[Estribillo]
F C Bb
Dale, dolores no llores
F C Bb
Dale, dolores no llores
F C Bb
Dale, dolores no llores
F C Bb
No...
F C Bb
Dale, dolores no llores
F C Bb
Dale, dolores no llores
F C Bb
Dale, dolores no llores
F C Bb
No...
[Puente]
F C Bb
Oh oh, oh oh oh
F C Bb
Oh oh, oh oh oh
[Outro]
F C Bb
Todo pasa,
F C Bb
Todo pasa,
F C Bb
Todo paaaaasa,
F C Bb
Todo pasa,
F C Bb F C F
Todo pasa, todo pasa